Song name
# A B C D E F G H I J K L M N O P Q R S T U V W X Y Z

Fireflight - Desperate tab

Drop D tuning
e------------|
B------------|
G------------|
D------------|
A------------|
D------------|
Intro don't know it yet, but figuring it out.
e-
B-
G-
D-
A-
D-

Verse
e---------------------------------------------------------------------|  X2
B---------------------------------------------------------------------|
G---------------------------------------------------------------------|
D-1-1-x-x-x-x-x-x-4-4-x-x-x-x-x-x-11-11-x-x-x-x-x-x-6-6-x-x-x-x-x-x---|
A-1-1-x-x-x-x-x-x-4-4-x-x-x-x-x-x-11-11-x-x-x-x-x-x-6-6-x-x-x-x-x-x---|
D-1-1-x-x-x-x-x-x-4-4-x-x-x-x-x-x-11-11-x-x-x-x-x-x-6-6-x-x-x-x-x-x---|

Intro
e-------------------------------------------|
B-------------------------------------------|
G-------------------------------------------|
D-1-1-1-1---4-4-4-4---11-11-11-11---6-6-6-6-|
A-1-1-1-1---4-4-4-4---11-11-11-11---6-6-6-6-|
D-1-1-1-1---4-4-4-4---11-11-11-11---6-6-6-6-|

Verse 2
e---------------------------------------------------------------------|  X2
B---------------------------------------------------------------------|
G---------------------------------------------------------------------|
D-1-1-x-x-x-x-x-x-4-4-x-x-x-x-x-x-11-11-x-x-x-x-x-x-6-6-x-x-x-x-x-x---|
A-1-1-x-x-x-x-x-x-4-4-x-x-x-x-x-x-11-11-x-x-x-x-x-x-6-6-x-x-x-x-x-x---|
D-1-1-x-x-x-x-x-x-4-4-x-x-x-x-x-x-11-11-x-x-x-x-x-x-6-6-x-x-x-x-x-x---|

e-----------------------|
B-----------------------|
G-----------------------|
D-8-8-8-8---11-11-11-11-|
A-8-8-8-8---11-11-11-11-|
D-8-8-8-8---11-11-11-11-|

Chorus

e-------------------------------------------| X4
B-------------------------------------------|
G-------------------------------------------|
D-1-1-1-1---4-4-4-4---11-11-11-11---6-6-6-6-|
A-1-1-1-1---4-4-4-4---11-11-11-11---6-6-6-6-|
D-1-1-1-1---4-4-4-4---11-11-11-11---6-6-6-6-|

Verse
e------------------------------------------|
B------------------------------------------|
G------------------------------------------|
D-1-1--------------------------------------|
A-1-1--------------------------------------|
D-1-1--------------------------------------|

e-------------------------------------------------------------------|
B-------------------------------------------------------------------|
G-------------------------------------------------------------------|
D-1-1-x-x-x-x-x-x-4-4-x-x-x-x-x-x-11-11-x-x-x-x-x-x-6-6-x-x-x-x-x-x-|
A-1-1-x-x-x-x-x-x-4-4-x-x-x-x-x-x-11-11-x-x-x-x-x-x-6-6-x-x-x-x-x-x-|
D-1-1-x-x-x-x-x-x-4-4-x-x-x-x-x-x-11-11-x-x-x-x-x-x-6-6-x-x-x-x-x-x-|

e-----------------------|
B-----------------------|
G-----------------------|
D-8-8-8-8---11-11-11-11-|
A-8-8-8-8---11-11-11-11-|
D-8-8-8-8---11-11-11-11-|

Chorus

e-------------------------------------------| X4
B-------------------------------------------|
G-------------------------------------------|
D-1-1-1-1---4-4-4-4---11-11-11-11---6-6-6-6-|
A-1-1-1-1---4-4-4-4---11-11-11-11---6-6-6-6-|
D-1-1-1-1---4-4-4-4---11-11-11-11---6-6-6-6-|

Bridge
e-------------------------|
B-------------------------|
G-------------------------|
D-9-9-9-9-9-9-9-9---------|
A-9-9-9-9-9-9-9-9---------|
D-9-9-9-9-9-9-9-9---------|

e---------------------------------|
B---------------------------------|
G---------------------------------|
D---------------------------------|
A---------4-4-4-4---------1-1-1-1-|
D-1-0-1-0---------1-0-1-0---------|

e---------------------------------------------------------|
B---------------------------------------------------------|
G---------------------------------------------------------|
D-9-9-9-9-9-9-9-9-9---11-11-11-11-11-11-11-11-11----------|
A-9-9-9-9-9-9-9-9-9---11-11-11-11-11-11-11-11-11----------|
D-9-9-9-9-9-9-9-9-9---11-11-11-11-11-11-11-11-11----------|

Chorus

e-------------------------------------------| X6
B-------------------------------------------|
G-------------------------------------------|
D-1-1-1-1---4-4-4-4---11-11-11-11---6-6-6-6-|
A-1-1-1-1---4-4-4-4---11-11-11-11---6-6-6-6-|
D-1-1-1-1---4-4-4-4---11-11-11-11---6-6-6-6-|

Outro

e-------| Really Fast
B-------|
G-------|
D-1-1---|
A-1-1---|
D-1-1---|
Tap to rate this tab
 
# A B C D E F G H I J K L M N O P Q R S T U V W X Y Z