Song name
# A B C D E F G H I J K L M N O P Q R S T U V W X Y Z

Fireflight - Serenity tab

Hi guys. This tab is for the song Serenity by Fireflight and I'm really 
disappointed that there ain't a tab for this really magnificent song. Well, 
since I can't see a tab for this one, I might as well make one. First, tune 
your guitar a half step down and tune it to drop d. In short, it's has a 
drop c# tuning. Just listen closely to the song to get the timing. For any 
questions, suggestions or comments, e-mail me at william_lolobook@yahoo.com.


Verse 1:
|--------------------------------|--------------------------------|
|---------------8----------------|-------------10---8p6-----------|  Repeat 
|-7-10\9/10\9-7---10-7-9/10\9/10-|-10\9/10\9-7----7-----9/10\9/10-|   both 
|-7------------------------------|--------------------------------| rifflines
|-0------------------------------|--------------------------------|    2x
|-0------------------------------|--------------------------------|

Verse 2:
Same as Verse 1.

Chorus
|---------|---------------------------------|----|
|---------|---------------------------------|----|
|---------|---------------------------------|----|
|-8~-7~-7-|-x-x-7-8-x-x-7-8-x-x-3-2-x-x-3-2-|-0~-|
|-8~-7~-7-|-x-x-7-8-x-x-7-8-x-x-3-2-x-x-3-2-|-0~-|
|-8~-7~-7-|-x-x-7-8-x-x-7-8-x-x-3-2-x-x-3-2-|-0~-|
          |       Repeat riff 4 times       |

Verse 3:
Same as Verse 1.

Verse 4:
Same as Verse 1.

Repeat Chorus except last note

Bridge 1:
|-----------------|-----------------|----------------------|
|-----------------|-----------------|----------------------|
|-----------------|-----------------|----------------------|
|-0-----5----2----|-0-----5----2----|-0-----5----2----2----|
|-0-16x-5-8x-2-8x-|-0-16x-5-8x-2-8x-|-0-16x-5-8x-2-8x-2-8x-|
|-0-----5----2----|-0-----5----2----|-0-----5----2----2----|
  .     .    .      .     .    .      .     .    .  

Bridge 2(Solo?):
|--------------------------------|---------------------------------|
|--------------------------------|---------------------------------|
|-----7---7/9~-------------------|-----10---10\9-------------------|
|-x-x-7-x-7/9~-x-8-8-8-8-7-7-7-7-|-x-x-10-x-10\9-x-8-8-8-8-7-7-7-7-|
|-x-x-5-x-5/7~-x-8-8-8-8-7-7-7-7-|-x-x-8--x-8 \7-x-8-8-8-8-7-7-7-7-|
|-x-x---x------x-8-8-8-8-7-7-7-7-|-x-x----x------x-8-8-8-8-7-7-7-7-|

|--------------------------------|
|--------------------------------|
|-----7---7/9~-------------------|
|-x-x-7-x-7/9~-x-8-8-8-8-7-7-7-7-|
|-x-x-5-x-5/7~-x-8-8-8-8-7-7-7-7-|
|-x-x---x------x-8-8-8-8-7-7-7-7-|

Repeat Intro

Repeat Chorus

Outro:
Same as Intro.

End With
|-----|
|-----|
|-7~\-|
|-7~\-|
|-0~--|
|-0~--|
Tap to rate this tab
# A B C D E F G H I J K L M N O P Q R S T U V W X Y Z