Song name
# A B C D E F G H I J K L M N O P Q R S T U V W X Y Z

Firehouse - Here For You tab

Title: Here for you
Artist: Firehouse
Tabbed by: Marvin Necesito Maon

Aurora State College of Technology

Ganito yung acoustic guitar lead,,,nakita ko sa video..
Sorry di ko pah na i-tabulate yung main lead..    toooooooo tricky

||------------------------------------------------------------------------------|
||------------8---10/12----10---8----10/12----10----8-----10/12--------10----8--|
||----7/9-----------------------------------------------------------------------|
||------------------------------------------------------------------------------|
||------------------------------------------------------------------------------|
||------------------------------------------------------------------------------|

||---------------------------------------------|
||----------8---10/12---10--8---------------8--|
||--7/9---------------------------9p8---9------|
||---------------------------------------------|
||---------------------------------------------|
||---------------------------------------------|


Comments: email me   at      vinzta_007@yahoo.com
Friendster:    dvmc@yahoo.com
Tap to rate this tab
# A B C D E F G H I J K L M N O P Q R S T U V W X Y Z