Firewind - Broken tab

Broken
Firewind
Days of Defiance

This is the intro for Broken, Its played on acoustic, if i ever get the rest of it 
i will post it. Please rate, comment, and enjoy :D

Cm        Fm                   Bb      Eb 
e|----------------|---------------------------|-----------------|
B|----------------|---------------------------|-----------------|
G|------12--10----|--10--------------10--8----|--7h8p7-8-10-12--|
D|--10------------|-----13-12-10-8------------|-----------------|
A|----------------|---------------------------|-----------------|
E|----------------|---------------------------|-----------------|

    Cm        Fm            Ab            Bb
e|----------------|--11/13--10----|--8---6--4--3----|
B|----------------|--13/15--11----|--9---8--6--4----|
G|------12--10----|---------------|-----------------|
D|--10------------|---------------|-----------------|
A|----------------|---------------|-----------------|
E|----------------|---------------|-----------------|
Tap to rate this tab
 
# A B C D E F G H I J K L M N O P Q R S T U V W X Y Z