Song name
# A B C D E F G H I J K L M N O P Q R S T U V W X Y Z

Fito Y Fitipaldis - Las Nubes De Tu Pelo tab

Highlighted       Show chord diagrams
Fito & Fitipaldis - Las nubes de tu pelo
AUTOR: Fito Cabrales
ALBUM: Lo mas lejos a tu lado (2003)
Transcripted by Julupanter (My first tab xD)

Introduction:
C  G   D  Em
C  Em  D  B7


Verse:
C                                       G
No hay mejor lugar, que entre las nubes de tu pelo,
D                  B7             Em
para revolver, las drogas con los versos,
C                 D                Em
lo mejor del Sol, el brillo de la Luna,
D                 
que es tu corazón.

C                                      G
En medio del mar, te sientes como en un desierto,
D                B7            Em
primavera ven, y cúrame el invierno,
C                D             Em
loco trovador, es tu canción desnuda,
D            
sólo corazón.


Chorus:
C                    D                   Em
Hoy me quedo en casa lo de fuera no me interesa,
C                          D               Em
ya saldré a dar una vuelta otro día que no llueva,
         C                     D                      Em         C
¿Cuántas flores para un ramo? ¿Cuántos versos para un poema?

PUNTEO:
     Mim              Re               Sol     (I need to add the final rythm)
E| --------------------------------------------------------|
B| ---0-3-0------------0---------1---0-------0-------------|
G| ---------2v---0---0---2-------------0-------0-----------|
D| ----------------2---------------------2-0---------------|
A| --------------------------------------------------------|
E| --------------------------------------------------------|

     Mim              Rem                     Sol
E| --------------------------------------------------|
B| ---0-3-0-----------0----------0-1-0-----------0---|
G| ---------2v--0---0---2------0-------2-0---------0-|
D| ---------------2----------2-------------2-0-2-----|
A| --------------------------------------------------|
E| --------------------------------------------------|

Chorus

Punteo

Chorus


         Enjoy. 
             Julupanter always at gmail.com
Tap to rate this tab
# A B C D E F G H I J K L M N O P Q R S T U V W X Y Z