Song name
# A B C D E F G H I J K L M N O P Q R S T U V W X Y Z

Five Finger Death Punch - Stranger Than Fiction tab

-------------------------------------------------------------------------------
			     Stranger Than Fiction - Five Finger Death Punch
-------------------------------------------------------------------------------
Tabbed by:Stefan Lebrasseur
Email:Firefeet20@insightbb.com
First Tab hope u like it.

Tuning:D A D G B E, First and last parts are Acoustic E A D G B E

e|---------------------------------------------------------------------------|
B|--8-7------8--7-10-7-----------5----------6--------------------------------|
G|--9---7----9--7------7---------5----------7---------X2---------------------|
D|--9-----7--9--7--------7-----5-----5------7--------------------------------|
A|--7--------7--7------------3-----------5--5--------------------------------|
E|-------------------------0-----------0-------------------------------------|

e|---------------------------------------------------------------------------|
B|---------------------------------------------------------------------------|
G|---------------------------------------------------------------------------|
D|-1-0-0------------------1-0-0---------------1-0-0--------------------------|
A|-1-0-0--00--0--00000----1-0-0--00--0--0b5---1-0-0--00--0--00000------------|
D|-1-0-0--00--0--00000----1-0-0--00--0--0-----1-0-0--00--0--00000------------|        
-|        PM---------|           PM-----|            PM---------|          --|

e|---------------------------------------------------------------------------|
B|---------------------------------------------------------------------------|
G|---------------------------------------------------------------------------|
D|--1-0-0--------------------------------------------------------------------|
A|--1-0-0--0000b5--00b2-----X2-----------------------------------------------|
D|--1-0-0--0000----00-------------------------------------------------------
-|
-|         PM-|    PM
-|

e|---------------------------------------------------------------------------|
B|---------------------------------------------------------------------------|
G|---------------------------------------------------------------------------|
D|---------------------------------------------------------------------------|
A|-0-0-0--00--0--0000000----0-0-0--00--0--0b5---0-0-0--00--0--0000000--------|
D|-0-0-0--00--0--0000000----0-0-0--00--0--0-----0-0-0--00--0--0000000--------|
-| PM-------------------------------------|     PM------------------|
-|

e|---------------------------------------------------------------------------|
B|---------------------------------------------------------------------------|
G|---------------------------------------------------------------------------|
D|------------------------X2-------------------------------------------------|
A|-0-0-0--0000b5--b2---------------------------------------------------------|
D|-0-0-0--0000--00-----------------------------------------------------------|
-| PM--------|  PM
-|

e|---------------------------------------------------------------------------|
B|---------------------------------------------------------------------------|
G|---------------------------------------------9-11-11V----------------------|
D|----9-11-12-11-----------------------9-11-12-----------------X2------------|
A|-/9-------------12-7--------------/9---------------------------------------|
D|-----------------------12-12-11-9------------------------------------------|

e|---------------------------------------------------------------------------|
B|---------------------------------------------------------------------------|
G|---------------------------------------------------------------------------|
D|-------------------X3------------------------------------------------------|
A|-0-00-0-00-0------------0-00-0-00------------------------------------------|
D|-0-00-0-00-0------------0-00-0-00-----------------------------------------
-|
-| PM--------|            PM------|
-|

e|---------------------------------------------------------------------------|
B|---------------------------------------------------------------------------|
G|---------------------------------------------------------------------------|
D|-1-0-0------------------1-0-0---------------1-0-0--------------------------|
A|-1-0-0--00--0--00000----1-0-0--00--0--0b5---1-0-0--00--0--00000------------|
D|-1-0-0--00--0--00000----1-0-0--00--0--0-----1-0-0--00--0--00000-----------
-|
-|        PM---------|           PM-----|            PM---------|
-|
e|---------------------------------------------------------------------------|
B|---------------------------------------------------------------------------|
G|---------------------------------------------------------------------------|
D|--1-0-0--------------------------------------------------------------------|
A|--1-0-0--0000b5--00b2-----X2-----------------------------------------------|
D|--1-0-0--0000----00-------------------------------------------------------
-|
-|         PM-|    PM
-|

e|---------------------------------------------------------------------------|
B|---------------------------------------------------------------------------|
G|---------------------------------------------9-11-11V----------------------|
D|----9-11-12-11-----------------------9-11-12-----------------X2------------|
A|-/9-------------12-7--------------/9---------------------------------------|
D|-----------------------12-12-11-9------------------------------------------|

e|---------------------------------------------------------------------------|
B|---------------------------------------------------------------------------|
G|---------------------------------------------------------------------------|
D|-------------------X3------------------------------------------------------|
A|-0-00-0-00-0------------0-00-0-00------------------------------------------|
D|-0-00-0-00-0------------0-00-0-00-----------------------------------------
-|
-| PM--------|            PM------|
-|

e|---------------------------------------------------------------------------|
B|-------------------------------2----------3--------------------------------|
G|-----------------------------2---2------4---4------------------------------|
D|--12-11/9-7--12-11/9-11----2----------4--------X2--------------------------|
A|-------------------------0----------2--------------------------------------|
D|---------------------------------------------------------------------------|

e|---------------------------------------------------------------------------|
B|---------------------------------------------------------------------------|
G|---------------------------------------------9-11-11V----------------------|
D|----9-11-12-11-----------------------9-11-12-----------------X4------------|
A|-/9-------------12-7--------------/9---------------------------------------|
D|-----------------------12-12-11-9------------------------------------------|

e|---------------------------------------------------------------------------|
B|---------------------------------------------------------------------------|
G|---------------------------------------------------------------------------|
D|---------------------------------------------------------------------------|
A|-0-00-0-00-0-------0-00-0-00-----------------------------------------------|
D|-0-00-0-00-0-------0-00-0-00----------------------------------------------
-|
-| PM--------|       PM------|
-|

e|---------------------------------------------------------------------------|
B|--8-7------8--7-10-7-----------5----------6--------------------------------|
G|--9---7----9--7------7---------5----------7---------X2---------------------|
D|--9-----7--9--7--------7-----5-----5------7--------------------------------|
A|--7--------7--7------------3-----------5--5--------------------------------|
E|-------------------------0-----------0-------------------------------------|

| /  slide up
| \  slide down
| h  hammer-on
| p  pull-off
| ~  vibrato
| +  harmonic
| x  Mute note
===============================================================================
Tap to rate this tab
# A B C D E F G H I J K L M N O P Q R S T U V W X Y Z