Song name
# A B C D E F G H I J K L M N O P Q R S T U V W X Y Z

Five Finger Death Punch - Bulletproof tab

Five Finger Death Punch

Bulletproof

Taken from the album: War is the answer.

Tuning:  (B, E, A, D, F#, B).

TEMPO= FAST (1 QUAVER= 104)

INTRO
 B|----------------------------------------------------------------|
F#|----------------------------------------------------------------|
 D|----------------------------------------------------------------|   x3
 A|---------------------------------------------------5-7-5--------|
 E|--------5-7-5-7-------5-7-5-7-------5-7-5-7--5-5-7-------7-5----|
 B|--0-0-0---------0-0-0---------0-0-0-----------------------------|
     * * *         * * *         * * *          * * * * * * * *

Last Time Do:
|--------------------------------------------|
|--------------------------------------------|
|--------------------------------------------|
|--------------------------------------------| (QUICK SNARE DRUM
|--------5-7-5-7-------5-7-5-7-------5-7-5-7-|  FOR PRE VERSE)
|--0-0-0---------0-0-0---------0-0-0---------|
   * * *         * * *         * * *

VERSE:
Itís exactly the same as intro, same riff as above, same amount of times; last time does 
exact same thing.

(Quick snare drum for pre chorus, exactly the same as pre verse)

CHORUS:

|--------------------------------------------------------------------------|
|--------------------------------------------------------------------------|
|--------------------------------------------------------------------------|X2
|--5-5-----5-5-----5-5----------------5-5-----5-5-----5-5--------5-7-5-----|
|--5-5-----5-5-----5-5----------------5-5-----5-5-----5-5--5-5-7-------7-5-|
|--5-5-0-0-5-5-0-0-5-5-0-0-0-0-0-0----5-5-0-0-5-5-0-0-5-5------------------|
       * *     * *     * * * * * *        * *     * *      * * * * * * * *


|-----------------------------------|
|-----------------------------------|
|-----------------------------------|
|-----------------------------------| etc.
|-----------------------------------|
|-0000000000000000000000000000000000
  **********************************


NO SOLO, UNABLE TO FIGURE OUT. SORRY FOR ANY INCONVENIENCE.
Tap to rate this tab
# A B C D E F G H I J K L M N O P Q R S T U V W X Y Z