Guitaretab - guitar tabs
Song name
# A B C D E F G H I J K L M N O P Q R S T U V W X Y Z

Five Finger Death Punch - Bad Company Acoustic tab

Five Finger Death Punch - Bad Company (wlusse24@gmail.com)
Acoustic Intro Tab

Some of the parts of the intro may be a bit off... for this is my first tab

E|-------------------------------------|
B|-------------3---------3---------3---|
G|---------------4---------4---------4-| (x3)
D|------------4---------4---------4----|
A|---------2----------2--------2-------|
E|-2----5------------------------------|

E|---------------------------------------------------------------|
B|------------------3-----------------0---------------4----------|
G|--------------4-----4---4------2------2---2-------4------------|
D|------------4---4-----4-----2----2------2-------4--------------| (x2)
A|---------2----------------0------------------2-----------------|
E|-2----5------------------------------------------------2----5--|
[ Tab from: http://www.guitaretab.com/f/five-finger-death-punch/222425.html ]
E|------------------------2------------------|
B|-----------2h3p2----------2-3--------------|
G|------4-----------4---4-------4---4--------| (x1)
D|----4---4----------------------------------|
A|--2----------------------------------------|
E|-------------------------------------2---5-|

E|---------------------------------------------------------------|
B|------------------3-----------------0---------------4----------|
G|--------------4-----4---4------2------2---2-------4------------|
D|------------4---4-----4-----2----2------2-------4--------------| (x1)
A|---------2----------------0------------------2-----------------|
E|-2----5------------------------------------------------2----5--|

E|------------------------------------|
B|------------------3--------------3--|
G|--------------4-----4---4------4----|
D|------------4---4-----4------4------| (x2)
A|---------2-----------------2--------|
E|-2----5-----------------------------|

E|------------------------------------|
B|------------------------------------|
G|--4-4---4-4---2---------------------|
D|--4-4---4-4---2---------------------| Then here begin the distorted guitar part.
A|--2-2---2-2---0---------------------|
E|------------------------------------|
		     bad company, i can't deny...
Related for Bad Company Acoustic tab
Bad Company Acoustic chords by Five Finger Death Punch