Song name
# A B C D E F G H I J K L M N O P Q R S T U V W X Y Z

Five Finger Death Punch - Remember Everything Acoustic tab

Author/Artist: Five Finger Death Punch
Title: Remember Everything
       Live Acoustic
Transcribed by: Robert Brown
Email: bahburt@gmail.com

Tuning: (from low to high)  A E A D F# B

This is the acoustic version they play live.
Transcribed to the best of my abilities. Hope you enjoy it!

    Intro

-|--------------------|---------------------|-----------------|--------------|
-|--------------------|---------------------|-----------------|--------------|
-|--------------------|---------------------|-----------------|--------------|
-|--------11-9--------|--------11-9---------|-----4-7-6-----4-|--------------|
-|---9-12------11---9-|---9-12------11-12-9-|---4-------7-----|--------------|
-|-0--------------0---|-0-------------------|-4-----------4---|--------------|


-|-------------------|--------------------|---------------------|------------|
-|-------------------|--------------------|---------------------|------------|
-|-------------------|--------------------|---------------------|------------|
-|-----4-7-6-------7-|--------11-9--------|--------11-9---------|------------|
-|---4-------7-------|---9-12------11---9-|---9-12------11-12-9-|------------|
-|-4-----------4\7---|-0--------------0---|-0-------------------|------------|


-|-------------------0------------------|------------------------------------|
-|-------------------0------------------|------------------------------------|
-|-------------------4------------------|------------------------------------|
-|-----4-7-6---4-----4------------------|------------------------------------|
-|---4-------7------------4/------------|------------------------------------|
-|-4-------------4--------4/------------|------------------------------------|
    Verse

-|--------------------|---------------------|-----------------|--------------|
-|--------------------|---------------------|-----------------|--------------|
-|--------------------|---------------------|-----------------|--------------|
-|--------11-9--------|--------11-9---------|-----4-7-6-----4-|--------------|
-|---9-12------11---9-|---9-12------11-12-9-|---4-------7-----|--------------|
-|-0--------------0---|-0-------------------|-4-----------4---|--------------|


-|-------------------|--------------------|---------------------|------------|
-|-------------------|--------------------|---------------------|------------|
-|-------------------|--------------------|---------------------|------------|
-|-----4-7-6-------7-|--------11-9--------|--------11-9---------|------------|
-|---4-------7-------|---9-12------11---9-|---9-12------11-12-9-|------------|
-|-4-----------4\7---|-0--------------0---|-0-------------------|------------|


-|-----------------|----------------------|--------------------|-------------|
-|-----------------|----------------------|--------------------|-------------|
-|-----------------|----------------------|--------------------|-------------|
-|-----4-7-6-----4-|-------7-11-9---------|-12---11---9--------|-------------|
-|---4-------7-----|-----7--------11-12-9-|---------------12---|-------------|
-|-4-----------4---|-4\7------------------|----9----9---9----9-|-------------|


-|-----------------|-----------------|-----------------|---------------------|
-|-----------------|-------0---------|-------5-------9-|---------------------|
-|-6---6---4-------|-----2---2---2---|-----6-------9---|---------------------|
-|-------------7---|---2-----------2-|---6-------9-----|---------------------|
-|-----------------|-0---------0-----|-4-------7-------|---------------------|
-|---4---4---4---4-|-----------------|-----------------|---------------------|
    Chorus

-|---------------|---------------|-------------------------------|-----------|
-|-------0-------|---------------|-------3-------------7-------9-|-----------|
-|-----2---2-----|-------1-------|-----4---4---------7-------9---|-----------|
-|---2---------2-|-----2---2---2-|---4-------------7-------9-----|-----------|
-|-0---------0---|---2-------2---|-2---------2-4-5-------7-------|-----------|
-|---------------|-2-------------|-------------------------------|-----------|


-|--------------------|---------------|------------------------------|-------|
-|---------10---------|-------5-------|-------3-------------7-------9|-------|
-|------11----11------|-----6---6-----|-----4---4---------7-------9--|-------|
-|---11------------11-|---6---------6-|---4-------------7-------9----|-------|
-|-9-------------9----|-4---------4---|-2---------2-4-5-------7------|-------|
-|--------------------|---------------|------------------------------|-------|
                                           Repeat Verse and Chorus

-|----------------------9------------|---------------------------------------|
-|---------10-9h10p9------9h10-10----|---------------------------------------|
-|------11-----------11--------11----|---------------------------------------|
-|---11------------------------11----|---------------------------------------|
-|-9---------------------------9-----|---------------------------------------|
-|-----------------------------------|---------------------------------------|
   Bridge

-|-------0-------|---------------|-------0-------|-----------------|---------|
-|-----3---3-----|---------------|-----3---3-----|-------0-------5-|---------|
-|---2---------2-|-------2-------|---2---------2-|-----2-------6---|---------|
-|-0---------0---|-----4---4-----|-0---------0---|---2-------6-----|---------|
-|---------------|---4---------4-|---------------|-0-------4-------|---------|
-|---------------|-4---------4---|---------------|-----------------|---------|


-|-------0-------|---------------|---------------------------|---------------|
-|-----3---3-----|---------------|-------7-----7-----7-------|---------------|
-|---2---------2-|-------2-------|-----9---9-----9-----9-----|---------------|
-|-0---------0---|-----4---4-----|---9-------9-----9-------9-|---------------|
-|---------------|---4---------4-|-7---------------------7---|---------------|
-|---------------|-4---------4---|---------------------------|---------------|
       Repeat Verse and Chorus

-----------------------------------------------------------------------------
Tap to rate this tab
# A B C D E F G H I J K L M N O P Q R S T U V W X Y Z