Song name
# A B C D E F G H I J K L M N O P Q R S T U V W X Y Z

Five For Fighting - Infidel tab

So this is a great song dont have the part where John sings la le be la yet but its coming.
there are several guitars but this is aranged for one.(this is really easy by the way)

e|---------------|
B|---------------|
G|---------------|
D|----2/4--4\2-2-|
A|----2/4--4\2-2-|
E|-0--0__------0-| Play four times(The hook)

e|-0-----------------3--------0---------------------|
B|-0-----------------3--------2---------------------|
G|-1-----------------0--------0---------------------|
D|-2-Strum as needed-0-strum--2-strum then play hook|
A|-2-----------------2--------0---------------------|
E|-0-----------------3--------x---------------------|twice for verse

                 ^                   ^
e|------9--------9-----------7-------7-|
B|----9----------9--------7----------7-|
G|-11-------10---------9---------8-----|
D|-------------------------------------|
A|-------------------------------------|
E|-------------------------------------|Four times

                   Then

e|---------------|
B|---------------|
G|---------------|
D|---4-4/6-6/4-4-|
A|---4-4/6-6/4-4-|this is hook 2
E|-2-2---------2-|(it modulated up a step)

e|-2------|-5-----------|-2---------|
B|-2------|-5-----------|-4---------|
G|-3------|-6-----------|-4---------|
D|-4------|-7-----------|-4---------|
A|-4------|-7-----------|-2---------|
E|-2------|-5-----------|-x---------|           (whole thing twice)
|
|
e|--------|-------------|-----------|
B|--------|------7_____-|-----------|
G|--------|---pb(11)r9_-|---4__b(6)-|
D|--------|-------------|-----------|         
A|--------|-------------|-----------|           
E|--------|-------------|-----------|Play hook 2(whole thing twice)

                 ^                   ^
e|-------11-----11---[--------9-------9-]|
B|----11--------11---[-----9----------9-]|
G|-13--------12------[-11---------10----]|
D|-------------------[------------------]|
A|-------------------[------------------]|
E|-------------------[------------------]| three times then
                      fourth time through
                      play this twice /\

"La le be la" dont have yet

Modulating again play below several times

              ^                ^
e|------8-----8---------6------6-|
B|----8-------8------6---------6-|
G|-10------9------8---------7----|
D|-------------------------------|
A|-------------------------------|
E|-------------------------------|

then

e|-----------------|
B|-----------------|
G|-----------------|
D|---3--3/5-5\3--3-|
A|---3--3/5-5\3--3-|
E|-1-1-----------1-|

really easy song
the only hard part is remembering when to change key


Tap to rate this tab
# A B C D E F G H I J K L M N O P Q R S T U V W X Y Z