Fjorden Baby - Rendezvous tab

Rendezvous! by Fjorden Baby!

Riff 1

E:-----------:
B:--1-1--3-3-:
G:--0-0--0-0-:
D:--2-2--4-4-:
A:--3-3--5-5-:
E:-----------:

Riff 2

E:-------------------------------:
B:--------13-------------15------:
G:-------------------------------:
D:-----14----14-------16----16---:
A:--15---------15--17---------17-:
E:-------------------------------:

Riff 1 x4 (0:16-0:31)
Riff 2 x4 (0:32-0:47)
Riff 1 x4 (0:47-1:02)
Riff 1 x4 (1:17-1:32)
Riff 1 x4 (1:48-2:03)
Riff 2 x4 (2:03-2:18)
Tap to rate this tab
 
# A B C D E F G H I J K L M N O P Q R S T U V W X Y Z