Guitaretab - guitar tabs
Song name
# A B C D E F G H I J K L M N O P Q R S T U V W X Y Z

Flamin Groovies - Teenage Head tab

That is just the intro of this excellent song but you can play this tab in the whole song
It's very easy but listen to the song may help
Good luck!

[ Tab from: http://www.guitaretab.com/f/flamin-groovies/98610.html ]
e----------------------------------------|
b----------------------------------------|
g----------------------------------------|
d----------------------------------------|
a--2--2-2-2--2-2-2--2-2----2-------------|
E--0--0-0-0--0-0-0--0-0-3b-0-------------|


e----------------------------------------|
b----------------------------------------|
g----------------------------------------|
d--2--2-2-2--2-2-2--2-2----2-------------|
a--0--0-0-0--0-0-0--0-0-3b-0-------------|
E----------------------------------------|
Related for Teenage Head tab