Song name
# A B C D E F G H I J K L M N O P Q R S T U V W X Y Z

Flaminatrix - My Baby tab

Intro x4

E--------------------------------|
B--------------------------------|
G---------2--2-2-----------------|
D--2--2-2-2--2-2-5--5-5-4--4-4---|
A--2--2-2-2--2-2-5--5-5-4--4-4---|
E--2--2-2--------3--3-3-2--2-2---|

Verse x4

E--------------------------------|
B--------------------------------|
G---------2--2-2-----------------|
D--2--2-2-2--2-2-5--5-5-4--4-4---|
A--2--2-2-2--2-2-5--5-5-4--4-4---|
E--2--2-2--------3--3-3-2--2-2---|
   My      baby  Wants what she wants......

Chorus x1

E------------------------------------|
B------------------------------------|
G------------------------------------|
D--3-3-3-3-4-4-4-4-3-3-3-3-55555555--|
A--3-3-3-3-4-4-4-4-3-3-3-3-55555555--|
E--1-1-1-1-2-2-2-2-1-1-1-1-33333333--|

Intro x4
Verse x4
Chorus x1

Outro x1

E------------------------|
B------------------------|
G---------2--2-2---------|
D--2--2-2-2--2-2-5-5-5-5-|
A--2--2-2-2--2-2-5-5-5-5-|
E--2--2-2--------3-3-3-3-|


Order
------

Intro
Verse
Chorus
Intro
Verse
Chorus
Outro
Tap to rate this tab
 
# A B C D E F G H I J K L M N O P Q R S T U V W X Y Z