Song name
# A B C D E F G H I J K L M N O P Q R S T U V W X Y Z

Fleetwood Mac - The Chain tab

-------------------------------------------------------------------------------
			 The Chain  Fleetwood Mac
-------------------------------------------------------------------------------
Tabbed by:I Am Joe
Email:

Tuning: Standard

The Bass Line Goes Like This
G|-----------------------------------------------------|
D|-----------------------------------------------------|
A|-0--0-2-3-2-0---0-2---------0--0-2-3-2-0---0-2-------|
E|--------------3-----0---------------------3----0-----|


G|-----------------------------------------------------|
D|-----------------------------------------------------|
A|-----0--0-2-3-2-0---0-2------------------------------|
E|-1/3--------------3-----0----------------------------|

Then The Guitar Comes In Like This
e|-----------------------------------------------------|
B|12-12-12-12-12-12-12-12-12-12-12-12-12-12-12-12-12---|
G|-----------------------------------------------------|
D|-----------------------------------------------------|
A|-----------------------------------------------------|
E|-----------------------------------------------------|

e|-----------------------------------------------------|
B|17-17-17-17-17-17-17-17-17-17-17-17-17-17-17-17-17---|
G|-----------------------------------------------------|
D|-----------------------------------------------------|
A|-----------------------------------------------------|
E|-----------------------------------------------------|

e|-----------------------------------------------------|
B|20-17-17-17-17-17-17-17-20-17-17-17-17-17-17-17-20---|
G|-----------------------------------------------------|
D|-----------------------------------------------------|
A|-----------------------------------------------------|
E|-----------------------------------------------------|

e|-----------------------------------------------------|
B|17-17-20-17-17-20-17-17-20-17-17-20-17-17-20-17-20b--|
G|-----------------------------------------------------|
D|-----------------------------------------------------|
A|-----------------------------------------------------|
E|-----------------------------------------------------|

e|-----------------------------------------------------|
B|20b-20b-20b-20b-20b-20b-20b-20b-20b-20b-20b-20b-20b--|
G|-----------------------------------------------------|
D|-----------------------------------------------------|
A|-----------------------------------------------------|
E|-----------------------------------------------------|

e|-----------------------------------------------------|
B|20-17-15-12\15-17------------------------------------|
G|-----------------------------------------------------|
D|-----------------------------------------------------|
A|-----------------------------------------------------|
E|-----------------------------------------------------|


| /  slide up
| \  slide down
| h  hammer-on
| p  pull-off
| ~  vibrato
| +  harmonic
| x  Mute note
Tap to rate this tab
# A B C D E F G H I J K L M N O P Q R S T U V W X Y Z