Fleetwood Mac - You Make Loving Fun tab

---------------------------------------------------------------------------
		You Make Loving Fun - Fleetwood Mac
---------------------------------------------------------------------------
Tabbed by: maguri
Tuning: Standard

Fleetwood Mac
You Make Loving Fun (1977)
(Christine McVie)

From: "Rumours"


In this tab I suggest:
- a guitar arrangement of the keyboard pattern played in the verses
- a basic transcription of the electric guitar lick in the choruses 
- lyrics and chords 

Great to play if you have another guitarist to play the other guitar.

Enjoy!

---------------------------------------------------------------------------
CHORDS

        e-B-G-D-A-E
A/G     0-2-2-2-x-3
Dsus2   0-3-2-0-x-x
F#m7    0-2-2-2-x-2
A/E     0-2-2-2-x-0

---------------------------------------------------------------------------

Capo 1st fret

VERSE PATTERN (played on an e-piano in the original)
These are the voicings and the rhythm of the changes. Each player should 
find his own way of integrating them into his or her own strumming pattern. 

 F#m F#m6 F#m7 F#m6        %               %                 %
e|x---x---x---x-2-|----x---x---x-2-|----------------|----x---x---x-0-|
B|2---4---5---4-2-|----4---5---4-2-|----------------|----4---5---4-0-|
G|2---2---2---2-2-|----2---2---2-2-|-------%--------|----2---2---2(1)|
D|4---4---4---4---|----4---4---4---|----------------|----4---4---4---|
A|4---------------|4---------------|----------------|4---------------|
E|2---------------|2---------------|----------------|2---------------|
  E  E6   E7 E6           %         D
e|----x---x---X-0-|----------------|----------------|----------------|
B|----2---3---2-0-|----------------|3---3---3---3---|----------------|
G|----1---1---1---|-------%--------|2---2---2---2---|--------%-------|
D|----2---2---2---|----------------|0---0---0---0---|----------------|
A|2---------------|----------------|----------------|----------------|
E|0---------------|----------------|----------------|----------------|


CHORUS 1 (second guitar, lick version 1)
 [A]                                [A/G] 
e|----0-----------|------------0---|----------------|----------------|
B|0h2-----0-------|--------0-------|----------------|----------------|
G|------------2---|------2---------|----------------%----------------|
D|----------------|2---------------|----------------|----------------|
A|----------------|----------------|----------------|----------------|
E|----------------|----------------|----------------|----------------|
 [F#m7]           [E]              [D(sus2)]
e|----------------|----------------|----0-------0---|----------------|
B|----------------|----------------|3-------3-------|3p2p0---0h2p0---|
G|----------------%----------------|----------------|------2-------2-|
D|----------------|----------------|----------------|----------------|
A|----------------|----------------|----------------|----------------|
E|----------------|----------------|----------------|----------------|

CHORUS 2 (second guitar, lick version 2)
 [A]                                [A/G] 
e|----0-----------|------------0---|----------------|----------------|
B|0h2-----0-------|--------0-------|----------------|----------------|
G|------------2---|------2---------|----------------%----------------|
D|----------------|2---------------|----------------|----------------|
A|----------------|----------------|----------------|----------------|
E|----------------|----------------|----------------|----------------|
 [F#m7]           [E]              [D(sus2)]
e|----------------|----------------|----0-------0---|----0-------0---|
B|----------------|----------------|3~------3~------|3~------3~------|
G|----------------%----------------|----------------|----------------|
D|----------------|----------------|----------------|----------------|
A|----------------|----------------|----------------|----------------|
E|----------------|----------------|----------------|----------------|

[A]                                [A/G] 
e|----5-----------|----------------|----5-----------|----------------|
B|----------5-----|3-----2-----3h5-|5---------5-----|3-----2-----3h5-|
G|----------------|----------------|----------------|----------------|
D|----------------|----------------|----------------|----------------|
A|----------------|----------------|----------------|----------------|
E|----------------|----------------|----------------|----------------|
 [F#m7]           [E]              [D(sus2)]
e|----5-----------|----5-----2-----|----------------|----------------|
B|5---------5-----|3-----2-----5---|3---3---3---3---|3~--3~--3~--3~--|
G|----------------|--------------2-|----2---2---2---|2~--2~--2~--2~--|
D|----------------|----------------|----------------|----------------|
A|----------------|----------------|----------------|----------------|
E|----------------|----------------|----------------|----------------|

p - pulling off
h - hammering on
~ - vibrato

---------------------------------------------------------------------------
Capo 1st fret


INTRO
| F#m | % | % | % | E | % | D | % |
[verse pattern]


F#m [verse pattern]
Sweet wonderful you
E  [verse pattern]                      D
  You make me happy with the things you do
F#m [verse pattern]
Oh, can it be so
E  [verse pattern]                   D
  This feeling follows me wherever I go


CHORUS 1 [+ 2x second guitar lick version 1]
A                     A/G  
  I never did beli----eve in miracles
F#m7           E                    D(sus2)  
    But I've a feeling it's time to try
A                     A/G  
  I never did beli----eve in the ways of magic
F#m7          E                 D(sus2)  
    But I'm beginning to wonder why


SOLO
| F#m | % | % | % | E | % | D | % |
[verse pattern]
| F#m | % | % | % | E | % | D | % |
[verse pattern]


CHORUS 2 [+ second guitar lick version 2]
A                     A/G
  I never did beli----eve in miracles
F#m7           E                    D(sus2)
    But I've a feeling it's time to try
A                     A/G 
  I never did beli----eve in the ways of magic
F#m7          E                 D(sus2)
    But I'm beginning to wonder why


F#m [verse pattern]
Don't, don't break the spell
E  [verse pattern]                       D
   It would be different and you know it will
F#m [verse pattern]
You, you make loving fun
E  [verse pattern]                                  D
  And I don't have to tell you that you're the only one

CODA
A  F#m7  A/E                 D
Yo-------ou, you make loving fun  (That's all I wanna do)
A  F#m7  A/E                 D
Yo-------ou, you make loving fun  (That's all I wanna do)
A  F#m7  A/E                 D
Yo-------ou, you make loving fun  (That's all I wanna do)
A  F#m7  A/E                 D
Yo-------ou, you make loving fun  (That's all I wanna do)

| A A/F# | A/E | D | % | 
(solo)

Repeat and FADE
Tap to rate this tab
 
# A B C D E F G H I J K L M N O P Q R S T U V W X Y Z