Song name
# A B C D E F G H I J K L M N O P Q R S T U V W X Y Z

Fleetwood Mac - I Loved Another Woman tab

HALF-STEP DOWN

I LOVED ANOTHER WOMAN - FLEETWOOD MAC

eb|------------------------------------------------14b(16)-14b(16)-14b(16)-|
Bb|---------------------------------------------10-------------------------|
Gb|----11------------------------------------------------------------------|
Db|-11----13p11------------------------------------------------------------|
Ab|-------------13-13\11--9--11/13-9---------------------------------------|
Eb|----------------------------------11~~~~~~~-----------------------------|

eb|-14~~~~~-11------------------11-----------------------------------------|
Bb|------------14-11-14~~~~~~-------11-14--11------------------------------|
Gb|-------------------------------------------14-13-11-13-13b(15)----------|
Db|----------------------------------------------------------------12~~----|
Ab|------------------------------------------------------------------------|
Eb|------------------------------------------------------------------------|

eb|------------11--------------------------------11-14---------------------|
Bb|---------11----14-11-14-11-----------------12--------12-----------------|
Gb|-13b(15)-------------------14-13-11----13---------------13~~---13b(15)--|
Db|------------------------------------13-----------------------13---------|
Ab|------------------------------------------------------------------------|
Eb|------------------------------------------------------------------------|

eb|------------------------------------------------------------------------|
Bb|------------------------------------------------------------------------|
Gb|-------------------------------------11--13--13b(15)~~~~~~~~-11---------|
Db|-13--11----------------12/13------13------------------------------------|
Ab|--------13-12-11-9------------------------------------------------------|
Eb|-------------------11---------------------------------------------------|

eb|-----------------------11-----------------------------------------------|
Bb|----------------------------------------------------11------------------|
Gb|-13b(15)rb(13)--11------------11--11~---------------11------------------|
Db|-------------------13------13----------13-----------13------------------|
Ab|----------------------------------------------13------------------------|
Eb|------------------------------------------------------------------------|

=============================================================================

TABLATURE LEGEND

xpy      =  Pull-Off (fret x and y. Sound x the pull-off to sound y) 

xb(y)    =  Bend (fret x and bend string to sound like y)

(x)rb(y) =  Release Bend (release the bent string to normalise note)

x~       =  Let Ring

o=o=o=o=o=o=o=o=o=o=o=o=o=o=o=o=o=o=o=o=o=o=o=o=o=o=o=o=o=o=o=o=o=o=o=o=o=o=o




Tap to rate this tab
# A B C D E F G H I J K L M N O P Q R S T U V W X Y Z