Song name
# A B C D E F G H I J K L M N O P Q R S T U V W X Y Z

Flem - Upside Down tab

Stanard Tuning

intro and Verse:

----x------------------------|
----x------------------------|
-6--x--55--7--77--5--5-------|
-7--x--55--7--77--5--5-------|
-7--x--33--5--55--3--3-------|
-5--x--33--5--55--3--3-------|

Chorus:

-------------------x----------|
-------------------x----------|
-7-7--5--5-5---5-5-x--5--5-5--|
-7-7--5--5-5---7-7-x--5--5-5--|
-5-5--3--3-3---7-7-x--3--3-3--|
-5-5--3--3-3---5-5-x--3--3-3--|

2nd Guitar(Verse)
------------------|
------------------|
-3-->--5----------|
-5-->--7----------|
-5-->--7--x9------|
-3-->--5----------|

2nd Guitar(Chorus)
----------------|
----------------|
----------------|
----------------|
--5--3--5-5--3--|
----------------|
Tap to rate this tab
# A B C D E F G H I J K L M N O P Q R S T U V W X Y Z