Flema - No Quiero Ir A La Guerra tab

bueno espero que les guste es una muy buena cancion y muy facil asi que les salga bien.....


|----------------------------------------------------------------------|
|----------------------------------------------------------------------|
|----------------------------------------------------------------------|
|---------2-3-2-5-5-5-5-5-5----------2-3-2--7-7-7-7-7-7----------------|
|-----3---------3-3-3-3-3-3--------3--------5-5-5-5-5-5----------------|
|---3----------------------------3-------------------------------------|

|-----------------------------------------------------------------------|
|-----------------------------------------------------------------------|
|-----------------------------------------------------------------------|
|---------2-3-2-7-7-7-7-7-7----------2-3-2--5-5-5-5-5-5-----------------|
|-------3-------5-5-5-5-5-5--------3--------3-3-3-3-3-3-----------------|
|-----3--------------------------3--------------------------------------|

                    la parte de abjo 2 veces
|---------------------------------------------------------------------|
|---------------------------------------------------------------------|
|---------------------------------------------------------------------|
|--------2-3-2--5-5-5-5-5-5-5-5-5-5-7-7-7-7-7-7-7-7-7-7-7-7-7-7-7-7---|
|------3--------3-3-3-3-3-3-3-3-3-3-5-5-5-5-5-5-5-5-5-5-5-5-5-5-5-5---|
|----3----------------------------------------------------------------|


|---------------------------------------------------------------------|
|---------------------------------------------------------------------|
|---------------------------------------------------------------------|
|---------------------------------------------------------------------|
|-7-7-7-7-7-7-5-5-5-5-5-5-5-5-5-5-------------------------------------|
|-5-5-5-5-5-5-3-3-3-3-3-3-3-3-3-3-------------------------------------|
Tap to rate this tab
 
# A B C D E F G H I J K L M N O P Q R S T U V W X Y Z