Song name
# A B C D E F G H I J K L M N O P Q R S T U V W X Y Z

Flight Of The Conchords - Jenny tab

-------------------------------------------------------------------------------
			        Jenny-flight of the conchords
-------------------------------------------------------------------------------
Tabbed by: John Magson
Email: purplemonkeypie@talktalk.net

Tuning:standard

this is the part that Bret plays throughout the verse. I play this as a bar chord but 
just mute the last two strings.

e|---------------------------------------|
B|----------------------10--12-12-12-----|
G|--------11------11----11--12-12-12-----|just repeat until Jermaine sings
D|--------12------12----11--12-12-12-----|'That's right Andy hates it when I forget that'......
A|--------12------12--9-9---10-10-10-----|
E|--10-10-10--9-9-9----------------------|

  ......change to this
e|-----------------------|
B|--33--222--------------|         you repeat this pattern when Jermaine says 'That's 
the ONLY way to
G|--22--222--------------| x2      eat sandwiches!'
D|--00--000---4-4-5-55---|
A|------------4-4-5-55---|
E|------------2-2-3-33---|

after you have played that go back to the first pattern.

e|---------------------------------|
B|----------------------10--121212-|
G|--------11------11----11--121212-|
D|--------12------12----11--121212-|
A|--------12------12--9-9---101010-|
E|--10-10-10--9-9-9----------------|

repeat this until he says 'we just looked OUT,
across the city from our little spot on the hilltop'
the play this...

e|--x-x-x-x-x-x-x-x-x-x-x-x-|-x-x-xx-x-x-xx-----x------|
B|--3-3-3-2-2-2-0-0-0-0-0-0-|-3-3-33-2-2-22-----0------|
G|--4-4-4-2-2-2-0-0-0-0-0-0-|-4-4-44-2-2-22-----0------|
D|--4-4-4-2-2-2-0-0-0-0-0-0-|-4-4-44-2-2-22-----0------|
A|--2-2-2-0-0-0-2-2-2-2-2-2-|-2-2-22-0-0-00-----2------|
E|--------------3-3-3-3-3-3-|---------------333333333--|
                                            palm mute

e|----------------------x----|
B|--4--4--43-----2-----10----|
G|--4--4--43----2-----11-----|
D|--4--4--43---2-----12------|
A|--2--2--21--0-----12-------|
E|-----------------10--------|

 then you go back to the verse.

 I am not 100% sure of what Jermaine is playing, but I have tried to work it
 out and here it is.....

e|------------5-3-2-------------------------2-5-3-2-----532-----------------|
B|--2h3p2----------5-3-2-------------2-3-2-5-------5-3-2---532---2h3p2------|
E|-------4-2------------4-2-2h4p2-2-4-------------------------4-2-----------|
D|--------------------------------------------------------------------------|
A|--------------------------------------------------------------------------|
E|--------------------------------------------------------------------------|

 that's it, the whole song. this is my first ever tab so please comment if I got 
anything wrong.

************************************

| /   slide up
| \   slide down
| h   hammer-on
| p   pull-off
| ~   vibrato
| +   harmonic
| x   Mute note
| b   Bend
| pb  Pre-bend
| br  Bend release
| pbr Pre-bend release
| brb Bend release bend

************************************
Tap to rate this tab
# A B C D E F G H I J K L M N O P Q R S T U V W X Y Z