Song name
# A B C D E F G H I J K L M N O P Q R S T U V W X Y Z

Flogging Molly - Every Dog Has Its Day tab

Flogging Molly - Every Dog Has Its Day
Album: Swagger
Tabber: Shamrock Customs



INTRO / MANDOLIN BREAKDOWN

  1 + + 4 + +  1 + + 4 + +  1 + + 4 + +  1 + + 4 + + 
E|--------0---|------------|--------0---|------------|
A|3~~---3---3-|--------0-2-|3~~---3---3-|--------0-2-|
D|------------|5~~---5-----|------------|5~~---5-----|
G|------------|------------|------------|------------|

  1 + + 4 + +  1 + + 4 + +  1 + + 4 + +  1 + + 4 + + 
E|--------0---|------0-----|------------|------------|
A|3~~---3---3-|5~~-----5-3-|0~~---0-3-0-|2-----------|
D|------------|------------|------------|------------|
G|------------|------------|------------|------------|

VERSE

  1 & 2 & 3 & 4 &  1 & 2 & 3 & 4 &  1 & 2 & 3 & 4 &  1 & 2 & 3 & 4 &
E|------------0---|----------------|------------0---|----------------|
A|3-------------3-|------------0-2-|3-------------3-|------------0-2-|
D|----------------|5---------------|----------------|5---------------|
G|----------------|----------------|----------------|----------------|

  1 & 2 & 3 & 4 &  1 & 2 & 3 & 4 &  1 & 2 & 3 & 4 &  1 & 2 & 3 & 4 &
E|------------0---|--------0-------|----------------|------------0-1-|
A|3-------------3-|5---------5---3-|0-----------3-0-|2---------------|
D|----------------|----------------|----------------|----------------|
G|----------------|----------------|----------------|----------------|

CHORUS

  1 & 2 & 3 & 4 &  1 & 2 & 3 & 4 &  1 & 2 & 3 & 4 &  1 & 2 & 3 & 4 &
E|3-------3-0-----|----------0---1-|3-------3-0-----|----------------|
A|--------------3-|5-------5-------|--------------3-|5-------3-----2-|
D|----------------|----------------|----------------|----------------|
G|----------------|----------------|----------------|----------------|

  1 & 2 & 3 & 4 &  1 & 2 & 3 & 4 &  1 & 2 & 3 & 4 &  1 & 2 & 3 & 4 &
E|----------------|--------0-------|----------------|1---------------|
A|3-----------3-0-|----------5---3-|0-------3-------|----------------|
D|----------------|5---------------|----------------|----------------|
G|----------------|----------------|----------------|----------------|

POST-CHORUS

  1 & 2 & 3 & 4 &  1 & 2 & 3 & 4 &  1 & 2 & 3 & 4 &  1 & 2 & 3 & 4 &
E|0---------------|------------1---|0---------------|----------------|
A|------------5-3-|----------------|------------5-3-|------------0-2-|
D|----------------|5---------------|----------------|5---------------|
G|----------------|----------------|----------------|----------------|

Tap to rate this tab
 
# A B C D E F G H I J K L M N O P Q R S T U V W X Y Z