Song name
# A B C D E F G H I J K L M N O P Q R S T U V W X Y Z

Flux Pavillion - I Cant Stop tab

-------------------------------------------------------------------------------
                                           I CAN'T STOP - Flux Pavillion
-------------------------------------------------------------------------------
Tabbed by: Max!

Tuning: Standard

First, the chords used!

       Cm   Bb   Ab   Fm     
e|-----3----1----4----1----|
B|-----4----3----4----1----|
G|-----5----3----5----1----|
D|-----5----3----6----3----|
A|-----3----1----6----3----|
E|---------------4----1----|

And the riff (with chord changes), to be played on either bass or guitar.
     
    Cm                Bb          G#                  Fm
     1  e  &   a   2   &   4   &   1   e   &   a   2   & 
G|----------------------------------------------------------|
D|------1------------------0---0----------------------------|
A|---3-----3---1---3---1------------------------------------|
E|---------------------------------4---6---4---3---4---1~---|
Tap to rate this tab
# A B C D E F G H I J K L M N O P Q R S T U V W X Y Z