Song name
# A B C D E F G H I J K L M N O P Q R S T U V W X Y Z

Flying Tigers - Maybe tab

Help us improve GuitareTab! Take a short survey!
Intro (sounds like he has a little tremelo effect going)

E----------------------------------|
B----------------------------------|
G----------------------------------|
D--3-3-3-5-5-5-5-0-6-6-6-6-5-5-5-0-|
A----------------------------------|
D----------------------------------|

Verses
E--------------------------------------|
B--------------------------------------|
G--5--5-----8----7---------------------|
D---3--3-----6----5--------------------|
A-3--3--3--6--6-5--5-------------------|
D--------------------------------------|

Pre-Chorus
E---------------------------------|
B---------------------------------|
G---------------------------------|
D--6-6---5-5---3-3-3-3-1-3-1------|
A--6-6---5-5---3-3-3-3-1-3-1------|
D--6-6---5-5---3-3-3-3-1-3-1------|

Chorus
E---------------------------------|
B---------------------------------|
G---------------------------------|
D--6-6-6--5-5-5--3-3-3--5-5-5-----|
A--6-6-6--5-5-5--3-3-3--5-5-5-----|
D--6-6-6--5-5-5--3-3-3--5-5-5-----|

Probably isnt perfect but sounds ok to me
Related for Maybe tab