Song name
# A B C D E F G H I J K L M N O P Q R S T U V W X Y Z

Flyleaf - Again Acoustic tab

I didnt see a tab up of this so I thougtht I would make one lol
I play it in Drop C but i guess you could play it in drop D if ya really wanted to lol.
I dont know all the fancy tabbing's to this song
 But these chords will work just as good. and im not sure of how many beats each chord
is, it might be 4 instead of 6. idk lol. but i just put 6 haha.hope you guys like it and enjoy:)

Intro:
D#|--x-------------x-------------x--------------|
A#|--8------------11-------------6--------------|
F#|--7------------10-------------5--------------|
C#|--5----(x6)----8----(X6)------3-------(X12)--|(X2)
G#|--5------------8--------------3--------------|
C#|--5------------8--------------3--------------|

Verses: (Same as intro but with just different strumming pattern)(also on the fourth
time on the last chord play downs to switch from the verse to the chorus)

D#|--x-------------x-------------x--|
A#|--8------------11-------------6--|
F#|--7------------10-------------5--|
C#|--5-------------8-------------3--|(X4)
G#|--5-------------8-------------3--|
C#|--5-------------8-------------3--|


Chorus:

D#|--x-------------x--------------x------------|
A#|--8------------11--------------6------------|
F#|--7------------10--------------5------------|
C#|--5---(X6)-----8--(X6)---------3-----(X12)--|(X2)
G#|--5------------8---------------3------------|
C#|--5------------8---------------3------------|

D#|--x-------------x--------------x---------------x----------|
A#|--4-------------8-------------11---------------6----------|
F#|--3-------------7-------------10---------------5----------|
C#|--1--(X6)-------5---(X6)-------8---(X6)--------3----(X6)--|(X2)
G#|--1-------------5--------------8---------------3----------|
C#|--1-------------5--------------8---------------3----------|


Verse Again

& then

Bridge :

D#|---x-------------x----------------x----------|
A#|---x-------------8---------------11----------|
F#|---x-------------7----------------10---------|
C#|---0--(X6)-------5-(X6)-----------8---(X12)--|(X2)
G#|---0-------------5----------------8----------|
C#|---0-------------5----------------8----------|

Then Play the chorus till the end.


I hope Youg guys liked this, it may not be perfect but this how i play it, and so far 
ive had no problems.
Tap to rate this tab
# A B C D E F G H I J K L M N O P Q R S T U V W X Y Z