Song name
# A B C D E F G H I J K L M N O P Q R S T U V W X Y Z

Flyleaf - New Horizons tab

-------------------------------------------------------------------------------
                             New Horizons - Flyleaf
-------------------------------------------------------------------------------
This is my first tab but it sounds pretty accurate. SO yeah
Tabbed by: Olivia Buchanan
E-mail: ParamoresBiggestFanEVER@gmail.com

Tuning: Drop D

e|-------------------------------------------------------------------------|
B|-------------------------------------------------------------------------|
G|-------------------------------------------------------------------------|
D|---5------4-------9-9-9-9-9-9-------5-----4--------7-7-7-7-7-7-----------|
A|---5------4-------9-9-9-9-9-9-------5-----4--------7-7-7-7-7-7-----------|
D|---5------4-------9-9-9-9-9-9-------5-----4--------7-7-7-7-7-7-----------|

e|-------------------------------------------------------------------------|
B|-------------------------------------------------------------------------|
G|-------------------------------------------------------------------------|
D|---5------4-------9-9-9-9-9-9--------5----4----4------7------------------|
A|---5------4-------9-9-9-9-9-9--------5----4----4------7------------------|
D|---5------4-------9-9-9-9-9-9--------5----4----4------7------------------|

Repeat.
Tap to rate this tab
 
# A B C D E F G H I J K L M N O P Q R S T U V W X Y Z