Song name
# A B C D E F G H I J K L M N O P Q R S T U V W X Y Z

Flyleaf - Breathe Today tab

This is the first 100% correct version in standardtuning.

Artist: Flyleaf
Song: Breathe Today
Album: Self-Titled
Tuning: Standard Eadgbe (yes, not drop D)

I think you'll find this to be the most accurate tab of this song so far,
all that is missing is the bridge wich is quite hard
So here we go......


                                    3x
e-------------------------------------------------------------------------------|
b-------------------------------------------------------------------------------|
g------4--4---------4--4---------4--4-------------------------------------------|
d------4--4---------4--4---------4--4-------------------------------------------|
a------2--2---------2--2---------2--2-------------------------------------------|
E---------------------------------------------------3-5-3----2-3-2--------------|


Then something that go's like this
                                    2x
e-------------------------------------------------------------------------------|
b-------------------------------------------------------------------------------|
g-------------------------------------------------------------------------------|
d--------5-5-5-5-5-5-5-5--4-4-4-4-4-4-4-4---------------------------------------|
a--------5-5-5-5-5-5-5-5--4-4-4-4-4-4-4-4---------------------------------------|
E--------3-3-3-3-3-3-3-3--2-2-2-2-2-2-2-2---------------------------------------|

Then comes something like this; a lot of people think B5 is still played here
but it's is not.
                                    2x
e-------------------------------------------------------------------------------|
b-------------------------------------------------------------------------------|
g-------------------------------------------------------------------------------|
d-------2-2------2-2---5-5--5-5------4-4------4-4--4-4--4-4---------------------|
a-------2-2------2-2---5-5--5-5------4-4------4-4--4-4--4-4---------------------|
E-------0-0------0-0---3-3--3-3------2-2------2-2--2-2--2-2---------------------|
(the second time the ending is a bit different with the strumming, just listen
to the song)

then....
                                    2x
e-------------------------------------------------------------------------------|
b-------------------------------------------------------------------------------|
g-------------------------------------------------------------------------------|
d-------2--2--2--2--5--5--5--5--4--4--4--4--4--4--4--4--------------------------|
a-------2--2--2--2--5--5--5--5--4--4--4--4--4--4--4--4--------------------------|
E-------0--0--0--0--3--3--3--3--2--2--2--2--2--2--2--2--------------------------|


then the chorus whoopeeeee
                                    2x
e-------------------------------------------------------------------------------|
b-------------------------------------------------------------------------------|
g------4-4-4-4------------------------------------------------------------------|
d------4-4-4-4--5-5-5-5---7-7-7-7-------5----5----------------------------------|
a------2-2-2-2--5-5-5-5---7-7-7-7-------5----5----------------------------------|
E---------------3-3-3-3---5-5-5-5-------3----2----------------------------------|


After that we get this part again
                                    3x
e-------------------------------------------------------------------------------|
b-------------------------------------------------------------------------------|
g------4--4---------4--4---------4--4-------------------------------------------|
d------4--4---------4--4---------4--4-------------------------------------------|
a------2--2---------2--2---------2--2-------------------------------------------|
E---------------------------------------------------3-5-3----2-3-2--------------|

Then this
(Notice that this next part is a combination of two earlier parts in the song

e-------------------------------------------------------------------------------|
b-------------------------------------------------------------------------------|
g-------------------------------------------------------------------------------|
d--5-5-5-5-5-5-5-5--4-4-4-4-4-4-4-4--2--2--2--2--5--5--5--5--4-4-4-4--4--4--4-4-|
a--5-5-5-5-5-5-5-5--4-4-4-4-4-4-4-4--2--2--2--2--5--5--5--5--4-4-4-4--4--4--4-4-|
E--3-3-3-3-3-3-3-3--2-2-2-2-2-2-2-2--0--0--0--0--3--3--3--3--2-2-2-2--2--2--2-2-|


Then the chorus again
                                    2x
(the second the time the last chord isn't played)
e-------------------------------------------------------------------------------|
b-------------------------------------------------------------------------------|
g------4-4-4-4------------------------------------------------------------------|
d------4-4-4-4--5-5-5-5---7-7-7-7-------5----5----------------------------------|
a------2-2-2-2--5-5-5-5---7-7-7-7-------5----5----------------------------------|
E---------------3-3-3-3---5-5-5-5-------3----2----------------------------------|

Then comes the bridge wich i haven't figured out yet

Chorus again
(only once this time)
e-------------------------------------------------------------------------------|
b-------------------------------------------------------------------------------|
g------4-4-4-4------------------------------------------------------------------|
d------4-4-4-4--5-5-5-5---7-7-7-7-------5----5----------------------------------|
a------2-2-2-2--5-5-5-5---7-7-7-7-------5----5----------------------------------|
E---------------3-3-3-3---5-5-5-5-------3----2----------------------------------|


After that this part again....

                                    2x
e-------------------------------------------------------------------------------|
b-------------------------------------------------------------------------------|
g-------------------------------------------------------------------------------|
d-------2-2------2-2---5-5--5-5------4-4------4-4--4-4--4-4---------------------|
a-------2-2------2-2---5-5--5-5------4-4------4-4--4-4--4-4---------------------|
E-------0-0------0-0---3-3--3-3------2-2------2-2--2-2--2-2---------------------|


Chorus
                                    2x
(the second the time the last chord isn't played)
e-------------------------------------------------------------------------------|
b-------------------------------------------------------------------------------|
g------4-4-4-4------------------------------------------------------------------|
d------4-4-4-4--5-5-5-5---7-7-7-7-------5----5----------------------------------|
a------2-2-2-2--5-5-5-5---7-7-7-7-------5----5----------------------------------|
E---------------3-3-3-3---5-5-5-5-------3----2----------------------------------|

Last Part
                                    2x
e-------------------------------------------------------------------------------|
b-------------------------------------------------------------------------------|
g-------------------------------------------------------------------------------|
d-------2--2--2--2--5--5--5--5--4--4--4--4--4--4--4--4--------------------------|
a-------2--2--2--2--5--5--5--5--4--4--4--4--4--4--4--4--------------------------|
E-------0--0--0--0--3--3--3--3--2--2--2--2--2--2--2--2--------------------------|
(They end with a slide to E)

That's it, i hope this was of use to you.
Hopefully someone will post the correct version of the bridge in a comment.

God Bless,

TAI
Tap to rate this tab
# A B C D E F G H I J K L M N O P Q R S T U V W X Y Z