Song name
# A B C D E F G H I J K L M N O P Q R S T U V W X Y Z

Flyleaf - Swept Away tab

Artist: Flyleaf
Title: Swept Away
Album: Memento Mori

Tuning: (low to high) C G C F A D

Tabbed by: FireReaverX


Intro
D|--------------------------------------------|
A|--------------------------------------------|
F|--------------------------------------------|
C|--------------------------------------------|  4x
G|--------------------------------------------|
C|-12---11-0-11-11-11-12---11-0-12---11-11-11-|

D|---------------------------------------------------------------------|
A|---------------------------------------------------------------------|
F|---------------------------------------------------------------------|
C|---------------------------------------------------------------------|
G|---------------------------------------------------------------------|
C|-0---0---12---0-11---0-3-4---0-3-2-0---0---12---0-11---0-3-4---0-3-2-|
 |                                                                     |  2x
D|-12------------------------------------------------------------------|
A|----------12---------------------------------------------------------|
F|-------------------13h14p13------------------------------------------|
C|----------------------------14-------------------------14----16b-----|
G|-------------------------------16---14---16~------14------14---------|
C|---------------------------------------------------------------------|


Verse
D|---------------------------------------------------------------------|
A|---------------------------------------------------------------------|
F|---------------------------------------------------------------------|
C|---------------------------------------------------------------------|  2x
G|---------------------------------------------------------------------|
C|-0---0---12---0-11---0-3-4---0-3-2-0---0---12---0-11---0-3-4---0-3-2-|
PM .   .    .    . .   . . .   . . . .   .    .   .  .   . . .   . . .

D|---------------------------------------------------------------------|
A|---------------------------------------------------------------------|
F|-12------------------------------------11----------------------------|
C|---------------------------------------------------------------------|
G|-10-------------------------------------9----------------------------|
C|---------------------------------------------------------------------|
 |                                                                     |
D|---------------------------------------------------------------------|
A|---------------------------------------------------------------------|
F|---------------------------------------------------------------------|
C|---------------------------------------------------------------------|
G|---------------------------------------------------------------------|
C|-0---0---12---0-11---0-3-4---0-3-2-0---0---12---0-11---0-3-4---0-3-2-|
PM .   .    .    . .   . . .   . . . .   .    .   .  .   . . .   . . .


D|---------------------------------------------------------------------|
A|---------------------------------------------------------------------|
F|-7-------------------------------------9-----------------------------|
C|---------------------------------------------------------------------|
G|-5-------------------------------------7-----------------------------|
C|---------------------------------------------------------------------|
 |                                                                     |
D|---------------------------------------------------------------------|
A|---------------------------------------------------------------------|
F|---------------------------------------------------------------------|
C|---------------------------------------------------------------------|
G|---------------------------------------------------------------------|
C|-0---0---12---0-11---0-3-4---0-3-2-0---0---12---0-11---0-3-4---0-3-2-|
PM .   .   ..   . ..   . . .   . . . .   .   ..   . ..   . . .   . . .


Pre-Chorus
D|-------------------------------------------------|
A|-------------------------------------------------|
F|-12-12-12-12-12-12-12-12-11-11-11-11-11-11-11-11-|
C|-------------------------------------------------|
G|-10-10-10-10-10-10-10-12--9--9--9--9--9--9--9--9-|
C|-------------------------------------------------|
 |                                                 |
D|-------------------------------------------------|
A|-------------------------------------------------|
F|-------------------------------------------------|
C|-5--5--5--5--5--5--5--5--4--4--4--4--4--4--4--4--|
G|-5--5--5--5--5--5--5--5--4--4--4--4--4--4--4--4--|
C|-5--5--5--5--5--5--5--5--4--4--4--4--4--4--4--4--|


Chorus
D|-----------------------------------------------------------------|
A|-----------------------------------------------------------------|
F|-7---------------9---------------11/12\11/12\11/12\11/12-11---14-|
C|-----------------------------------------------------------------|
G|-5---------------7----------------9/10\-9/10\-9/10\-9/10--9---12-|
C|-----------------------------------------------------------------|

E|-----------------------------------------------------------------|
B|-----------------------------------------------------------------|
G|-----------------------------------------------------------------|
D|-9-9-9-9-9-9-9-9-9-9-9-9-9-9-9-9-0-0-0-0-0-0-0-0-0-0-0-0-0-0-0-0-|
A|-9-9-9-9-9-9-9-9-9-9-9-9-9-9-9-9-0-0-0-0-0-0-0-0-0-0-0-0-0-0-0-0-|
D|-9-9-9-9-9-9-9-9-9-9-9-9-9-9-9-9-0-0-0-0-0-0-0-0-0-0-0-0-0-0-0-0-|

D|-------------------------------------------------------------------|
A|-------------------------------------------------------------------|
F|-7---------------9---------------11/12\11/12\11/12\11/12-11---14---|
C|-------------------------------------------------------------------|
G|-5---------------7----------------9/10\-9/10\-9/10\-9/10--9---12---|
C|-------------------------------------------------------------------|

D|-------------------------------------------------------------------|
A|-------------------------------------------------------------------|
F|-------------------------------------------------------------------|
C|-5-5-5-5-5-5-5-5-4-4-4-4-4-4-4-4-0-0-0-0---------------------------|
G|-5-5-5-5-5-5-5-5-4-4-4-4-4-4-4-4-0-0-0-0---------------------------|
C|-5-5-5-5-5-5-5-5-4-4-4-4-4-4-4-4-0-0-0-0-12---0-11-b-r-b-r-b-r-b-r-|

D|-----------------------------------------------------------------|
A|-----------------------------------------------------------------|
F|-7---------------9---------------11/12\11/12\11/12\11/12-11---14-|
C|-----------------------------------------------------------------|
G|-5---------------7----------------9/10\-9/10\-9/10\-9/10--9---12-|
C|-----------------------------------------------------------------|

E|-----------------------------------------------------------------|
B|-----------------------------------------------------------------|
G|-----------------------------------------------------------------|
D|-9-9-9-9-9-9-9-9-9-9-9-9-9-9-9-9-0-0-0-0-0-0-0-0-0-0-0-0-0-0-0-0-|
A|-9-9-9-9-9-9-9-9-9-9-9-9-9-9-9-9-0-0-0-0-0-0-0-0-0-0-0-0-0-0-0-0-|
D|-9-9-9-9-9-9-9-9-9-9-9-9-9-9-9-9-0-0-0-0-0-0-0-0-0-0-0-0-0-0-0-0-|

D|-------------------------------------------------------------------------------------------------|
A|-------------------------------------------------------------------------------------------------|
F|-7---------------9---------------11-11-11-11-11-11-11-11-11-11-11-11-11-11-11-11-11-11-11-11~----|
C|-------------------------------------------------------------------------------------------------|
G|-5---------------7----------------9--9--9--9--9--9--9--9--9--9--9--9--9--9--9--9--9--9--9--9~----|
C|-------------------------------------------------------------------------------------------------|
 |                                                                                       
         |
D|-------------------------------------------------------------------------------------------------|
A|-------------------------------------------------------------------------------------------------|
F|-------------------------------------------------------------------------------------------------|
C|-5-5-5-5-5-5-5-5-4-4-4-4-4-4-4-4-----------------------------------------------------------------|
G|-5-5-5-5-5-5-5-5-4-4-4-4-4-4-4-4-----------------------------------------------------------------|
C|-5-5-5-5-5-5-5-5-4-4-4-4-4-4-4-4-0---0---12---0-11---0-3-4---0-3-2-0---0---12---0-11---0-3-4-x-x-|


Verse


Pre-Chorus


Chorus


Bridge
(drums and bass solo; then, rhythm guitar plays verse riff while lead guitar plays with 
and feedback)


Chorus


Outro
D|---------------------------------------------------------------------|
A|---------------------------------------------------------------------|
F|---------------------------------------------------------------------|
C|---------------------------------------------------------------------|
G|---------------------------------------------------------------------|
C|-0---0---12---0-11---0-3-4---0-3-2-0---0---12---0-11---0-3-4---0-3-2-|
 |                                                                     |
D|-12------------------------------------------------------------------|
A|----------12---------------------------------------------------------|
F|-------------------13h14p13------------------------------------------|
C|----------------------------14-------------------------14----16b-----|
G|-------------------------------16---14---16~------14------14---------|
C|---------------------------------------------------------------------|


Note: For each connected staff, both guitar parts are meant to be played simultaneously.
The spacing I used to indicate timing is not always accurate between the two guitars.

| PM palm mute
| /  slide up
| \  slide down
| h  hammer-on
| p  pull-off
| b  bend
| r  release bend
=================================================================================
Tap to rate this tab
# A B C D E F G H I J K L M N O P Q R S T U V W X Y Z