Song name
# A B C D E F G H I J K L M N O P Q R S T U V W X Y Z

Flyleaf - Cassie Acoustic tab

Help us improve GuitareTab! Take a short survey!
This is a beautiful song for two acoustics... shame there
aren't many people who can sing like her... Enjoy:

Verse 1:

Guitar 1:

e|12--7--8---------|
b|----------8--7-8-|
g|--00-00-00-00-0-0|
d|-----------------|x22
a|-----------------|
E|-----------------|

Guitar 2:

e|---3-----3------|       )
b|----------------|       |
g|-0---0-0---0-0-0|       |
d|2-2---2-2---2-2-|x2     |
a|----------------|       |
E|----------------|       |
                          |- Repeat until chorus
e|---0-----0------|       |
b|----------------|       |
g|----------------|       |
d|-2---2-2---2-2-2|x2     |
a|3-3---3-3---3-3-|       |
E|----------------|       )

Chorus 1:

Guitar 1+2:

e|3-3-3-3-3-3-2-2-2-2-2-2-2-2-2-2-3-3-3-3-3-3-0-0-0-0-0-0-0-0-0-0|
b|3-3-3-3-3-3-3-3-3-3-3-3-3-3-3-3-3-3-3-3-3-3-0-0-0-0-0-0-0-0-0-0|
g|0-0-0-0-0-0-2-2-2-2-2-2-2-2-2-2-2-2-2-2-2-2-0-0-0-0-0-0-0-0-0-0|
d|2-2-2-2-2-2-0-0-0-0-0-0-0-0-0-0-0-0-0-0-0-0-2-2-2-2-2-2-2-2-2-2| x4
a|3-3-3-3-3-3-0-0-0-0-0-0-0-0-0-0-0-0-0-0-0-0-2-2-2-2-2-2-2-2-2-2|
E|0-0-0-0-0-0-x-x-x-x-x-x-x-x-x-x-x-x-x-x-x-x-0-0-0-0-0-0-0-0-0-0|

Verse 2:

Guitar 1:

e|12--7--8---------|
b|----------8--7-8-|
g|--00-00-00-00-0-0|
d|-----------------|x18
a|-----------------|
E|-----------------|

Guitar 2:

e|---3-----3------|       )
b|----------------|       |
g|-0---0-0---0-0-0|       |
d|2-2---2-2---2-2-|x2     |
a|----------------|       |
E|----------------|       |
                          |- Repeat until chorus
e|---0-----0------|       |
b|----------------|       |
g|----------------|       |
d|-2---2-2---2-2-2|x2     |
a|3-3---3-3---3-3-|       |
E|----------------|       )

Chorus 2:

Guitar 1+2:

e|3-3-3-3-3-3-2-2-2-2-2-2-2-2-2-2-3-3-3-3-3-3-0-0-0-0-0-0-0-0-0-0|
b|3-3-3-3-3-3-3-3-3-3-3-3-3-3-3-3-3-3-3-3-3-3-0-0-0-0-0-0-0-0-0-0|
g|0-0-0-0-0-0-2-2-2-2-2-2-2-2-2-2-2-2-2-2-2-2-0-0-0-0-0-0-0-0-0-0|
d|2-2-2-2-2-2-0-0-0-0-0-0-0-0-0-0-0-0-0-0-0-0-2-2-2-2-2-2-2-2-2-2| x4
a|3-3-3-3-3-3-0-0-0-0-0-0-0-0-0-0-0-0-0-0-0-0-2-2-2-2-2-2-2-2-2-2|
E|0-0-0-0-0-0-x-x-x-x-x-x-x-x-x-x-x-x-x-x-x-x-0-0-0-0-0-0-0-0-0-0|

Outro:

Guitar 1:

e|12--7--8---------12--7--8---------12--7--8---------12--7--8--~0---|
b|----------8--7-8-----------8--7-8-----------8--7-8-----------~0---|
g|--00-00-00-00-0-0--00-00-00-00-0-0--00-00-00-00-0-0--00-00-0-~0---|
d|-------------------------------------------------------------~2---|
a|-------------------------------------------------------------~2---|
E|-------------------------------------------------------------~0---|

Guitar 2:

e|---3-----3---------3-----3---------3-----3---------3-----3---~0---|       
b|-------------------------------------------------------------~0---|       
g|-0-----0-----0-0-0-----0-----0-0-0-----0-----0-0-0-----0-----~0---|       
d|2-2---2-2---2-2-2-2---2-2---2-2-2-2---2-2---2-2-2-2---2-2---~-2---| 
a|-------------------------------------------------------------~2---|      
E|-------------------------------------------------------------~0---| 
Related for Cassie Acoustic tab