Song name
# A B C D E F G H I J K L M N O P Q R S T U V W X Y Z

Flyleaf - Supernatural tab

Here's my other tab that i just come up with in 2 minutes so i don't know if it's right 
But if not right email me and tell me what's wrong with it so i can fix it. ajb132001@yahoo.com.

Flyleaf
Supernatural
Tuning:DADGBE


E----------------------------------------------------------------------------|
B----------------------------------------------------------------------------|
G-------------------------------------------------------------------4--------|
D--7-7-7-7-7-7----6-6-6-6-6-6-----2-2-2-2-2-2------9-9-9-9-9-9------4--------|
A--7-7-7-7-7-7----6-6-6-6-6-6-----2-2-2-2-2-2------9-9-9-9-9-9---OR-2--------|
D--7-7-7-7-7-7----6-6-6-6-6-6-----2-2-2-2-2-2------9-9-9-9-9-9---------------|
 Super...........natural patience graces her face and her voice never raises


E----------------------------------------------------------------------------|
B----------------------------------------------------------------------------|
G----------------------------------------------------------------------------|
D-7-7-7-7-7-7--6-6-6-6-6-6--9-9-9-9-9-9--2-2-2--1----------------------------|
A-7-7-7-7-7-7--6-6-6-6-6-6--9-9-9-9-9-9--2-2-2--1----------------------------|
D-7-7-7-7-7-7--6-6-6-6-6-6--9-9-9-9-9-9--2-2-2--1----------------------------|
  All because..of a love,Never let go of...........never let go of


and that's it. the rest i'm doing along with Broken Wings. Enjoy
Tap to rate this tab
# A B C D E F G H I J K L M N O P Q R S T U V W X Y Z