Song name
# A B C D E F G H I J K L M N O P Q R S T U V W X Y Z

Flyleaf - Red Sam tab

Artist: Flyleaf
Song: Red Sam
Album: Flyleaf
Tabbed by: Danielle [riot!]  [wh0aa@yahoo.com]
Tuning: Drop D


[INTRO]
e|--22--------------------|
B|-----22--33------3-33---|
G|--------------22--------|
D|------------------------|
A|------------------------|
D|------------------------| x4


e|-------------------------------|
B|-------------------------------|
G|--11----7--11-11---7---7-7-7-7-|
D|---9----5---9--9---5---5-5-5-5-|
A|---9----5---9--9---5---5-5-5-5-|
D|-------------------------------|

[VERSE 1]


e|--------------------------------------|
B|--7~~------7^(8)---------7/off--------|
G|--------------------------------------|
D|--------------------------------------|
A|--------------------------------------|
D|--------------------------------------|
the (8) is what it should sound like when you bend it
[not sure about the rest]

[PRE-CHORUS]
e|-------------------------------|
B|-------------------------------|
G|--11----7--11-11---7---7-7-7-7-|
D|---9----5---9--9---5---5-5-5-5-|
A|---9----5---9--9---5---5-5-5-5-|
D|-------------------------------|


[CHORUS]
e|-------------------------|
B|-------------------------|
G|-------------------------|
D|-9-999--12—-12-12----5-5-|
A|-9-999--12--12-12----5-5-|
D|-9-999--12--12-12----5-5-|
-or-
e|------------------------|
B|------------------------|
G|------------------------|
D|-9-999--4—44-4----5-5---|
A|-9-999--4-44-4----5-5---|
D|-9-999--4-44-4----5-5---|

chorus outro:
e|-------------------------------|
B|-------------------------------|
G|--11----7--11-11---7---7-7-7-7-|
D|---9----5---9--9---5---5-5-5-5-|
A|---9----5---9--9---5---5-5-5-5-|
D|-------------------------------|

[BRIDGE]                        

“my hands are open…”    progressing into “I worship”
e|----------------|         |------|
B|----------------|         |------|
G|-11---7---9^--7-|         |---7--|
D|-9----5---7^--5-|         |---5--|
A|-9----5---7^--5-|         |---5--|
E|----------------|x4       |------|


"&& I worship.."
e|-------------------------------|
B|-------------------------------|
G|--11----7--11-11---7---7-7-7-7-|
D|---9----5---9--9---5---5-5-5-5-|
A|---9----5---9--9---5---5-5-5-5-|
D|-------------------------------|

Tap to rate this tab
# A B C D E F G H I J K L M N O P Q R S T U V W X Y Z