Guitaretab - guitar tabs
Song name
# A B C D E F G H I J K L M N O P Q R S T U V W X Y Z

Flyleaf - Fully Alive tab

Title: Fully Alive
Artist: Flyleaf

Tuning: Drop D - DADGBE

Key: 	/ = slide up
	\ = slide down
        PM = palm mute

I don't think this is the album version for those that are seeking it, but this is the 
that i have, and the more popular one thats played on the radio most of the time


Intro
e|---------------------------|
B|---------------------------|
G|---------------------------|
D|---------------------------| x2
A|---------------------------|
D|--3--0--3--5--8--5--8--10--|

e|----------------------------------------------|
B|----------------------------------------------|
G|----------------------------------------------|
D|----------------------------------------------|
A|----------------------------------------------|
D|--3--0--3--5--8--5--8--10----8--5--8----5--0--|

e|----------------------------------------------|
B|----------------------------------------------|
G|----------------------------------------------|
D|--3--0--3--5--8--5--8--10----8--5--8----5--0--| x2
A|--3--0--3--5--8--5--8--10----8--5--8----5--0--|
D|--3--0--3--5--8--5--8--10----8--5--8----5--0--|


Verse x4
e|---------------------------------------------------------------------------|
B|---------------------------------------------------------------------------|
G|---------------------------------------------------------------------------|
D|--3--0-------5--0----------------------------------------------------------|
A|--3--0-------5--0------3--0--3--5--8--5--8--10--3--0--3--5--8--5--8--10----|
D|--3--0-------5--0------3--0--3--5--8--5--8--10--3--0--3--5--8-5--8--10----|
                        |----------------------PM----------------------------|

Chorus x2
e|-------------------------------------------------------------------|
B|-------------------------------------------------------------------|
G|--7-7-7-7-7-7-7-7-7-7-7-7-10-10-10---------------------------------|
D|--7-7-7-7-7-7-7-7-7-7-7-7-10-10-10-5-5-5/8-8-8-8-8-8-8-0--3--3--5--|
A|--5-5-5-5-5-5-5-5-5-5-5-5--8--8--8-5-5-5/8-8-8-8-8-8-8-0--3--3--5--|
D|--0-0-0-0-0-0-0-0-0-0-0-0----------5-5-5/8-8-8-8-8-8-8-0--3--3--5--|


Verse Altered
e|---------------------------------------------------|
B|---------------------------------------------------|
G|---------------------------------------------------|
D|--3--0-------5--0----------------------------------| x3
A|--3--0-------5--0------3--0--3--5--8--5--8--10-----|
D|--3--0-------5--0------3--0--3--5--8--5--8--10-----|
                        |----------PM----------------|

e|---------------------------------------------------------------------|
B|---------------------------------------------------------------------|
G|---------------------------------------------------------------------|
D|--3--0-------5--0----------------------------------------------------|
A|--3--0-------5--0------3--0--3--5--8--5--8--10----8--5--8----5--0----|
D|--3--0-------5--0------3--0--3--5--8--5--8--10----8--5--8----5--0----|
                        |-------------------PM-------------------------|


Chorus x2
e|-------------------------------------------------------------------|
B|-------------------------------------------------------------------|
G|--7-7-7-7-7-7-7-7-7-7-7-7-10-10-10---------------------------------|
D|--7-7-7-7-7-7-7-7-7-7-7-7-10-10-10-5-5-5/8-8-8-8-8-8-8-0--3--3--5--|
A|--5-5-5-5-5-5-5-5-5-5-5-5--8--8--8-5-5-5/8-8-8-8-8-8-8-0--3--3--5--|
D|--0-0-0-0-0-0-0-0-0-0-0-0----------5-5-5/8-8-8-8-8-8-8-0--3--3--5--|


Solo
e|------------------------------------------------------------------|
B|------------------------------------------------------------------|
G|------------------------------------------------------------------|
D|----------5-5-5-5-3-3-3-3-3-10-10-10-10/12-12-12-12-12-12-12-12/--|
A|--5-5-5-5---------------------------------------------------------|
D|------------------------------------------------------------------|

e|--------------------------------------------------------------------|
B|--------------------------------------------------------------------|
G|--12-12-12-12\10-10-10-10-------------------------------------------|
D|--------------------------12-12-12-12-12-12-12-12-----------5-5-5/--|
A|--------------------------------------------------3-3-3-3-3---------|
D|--------------------------------------------------------------------|
[ Tab from: http://www.guitaretab.com/f/flyleaf/69647.html ]
e|-------------------------------------|
B|-------------------------------------|
G|-------------------------------------|
D|--7-7-7-7-7\3-3-3-3/5-5-5-5-5-5-5-5--|
A|-------------------------------------|
D|-------------------------------------|

e|------------------------------------------------------------------|
B|------------------------------------------------------------------|
G|------------------------------------------------------------------|
D|----------5-5-5-5-3-3-3-3-3-10-10-10-10/12-12-12-12-12-12-12-12/--|
A|--5-5-5-5---------------------------------------------------------|
D|------------------------------------------------------------------|

e|--------------------------------------------------------------------|
B|--------------------------------------------------------------------|
G|--14-14\12-12\10-10-10-10-------------------------------------------|
D|--------------------------12-12-12-12-12-12-12-12-----------5-5-5/--|
A|--------------------------------------------------3-3-3-3-3---------|
D|--------------------------------------------------------------------|

e|-------------------------------------|
B|-------------------------------------|
G|-------------------------------------|
D|--7-7-7-7-7\3-3-3-3/5-5-5-5-5-5-5-5--|
A|-------------------------------------|
D|-------------------------------------|

e|------------------------------------------------------------------|
B|------------------------------------------------------------------|
G|------------------------------------------------------------------|
D|----------5-5-5-5-3-3-3-3-3-10-10-10-10/12-12-12-12-12-12-12-12/--|
A|--5-5-5-5---------------------------------------------------------|
D|------------------------------------------------------------------|

e|--------------------------------------------------------------------|
B|--------------------------------------------------------------------|
G|--12-12-12-12\10-10-10-10-------------------------------------------|
D|--------------------------12-12-12-12-12-12-12-12-----------5-5-5/--|
A|--------------------------------------------------3-3-3-3-3---------|
D|--------------------------------------------------------------------|

e|------------------------------------|
B|------------------------------------|
G|------------------------------------|
D|--7-7-7-7-7-5--3---5-5-5-5-5-5-5-5--|
A|------------------------------------|
D|------------------------------------|

e|------------------------------------------------------------------|
B|------------------------------------------------------------------|
G|------------------------------------------------------------------|
D|----------5-5-5-5-3-3-3-3-3-10-10-10-10/12-12-12-12-12-12-12-12/--|
A|--5-5-5-5---------------------------------------------------------|
D|------------------------------------------------------------------|

e|--------------------------------------------------------------------|
B|--------------------------------------------------------------------|
G|--12-12-12-12\10-10-10-10-------------------------------------------|
D|--------------------------12-12-12-12-12-12-12-12-----------5-5-5/--|
A|--------------------------------------------------3-3-3-3-3---------|
D|--------------------------------------------------------------------|

e|------------------------------------|
B|------------------------------------|
G|------------------------------------|
D|--7-7-7-7-7-5--3---5-5-5-5-5-5-5-5--|
A|------------------------------------|
D|------------------------------------|


Chorus Altered x4
e|-------------------------------------------------------------------------|
B|-------------------------------------------------------------------------|
G|-------------------------------------------------------------------------|
D|-3-3-3-3-3-3-3-3-10-10-10-10-10-10-10-10-8-8-8-8-8-8-8-8-8-8-8-8-8-8-8-8-|
A|-3-3-3-3-3-3-3-3-10-10-10-10-10-10-10-10-8-8-8-8-8-8-8-8-8-8-8-8-8-8-8-8-|
D|-3-3-3-3-3-3-3-3-10-10-10-1010-10-10-10-8-8-8-8-8-8-8-8-8-8-8-8-8-8-8-8-|


Outro
e|----------------------------------------------|
B|----------------------------------------------|
G|----------------------------------------------|
D|--3--0--3--5--8--5--8--10----8--5--8----5--0--|
A|--3--0--3--5--8--5--8--10----8--5--8----5--0--|
D|--3--0--3--5--8--5--8--10----8--5--8----5--0--|
Related for Fully Alive tab
Fully Alive chords by Flyleaf