Song name
# A B C D E F G H I J K L M N O P Q R S T U V W X Y Z

Fm Static - October tab

-------------------------------------------------------------------------------
                             OCTOBER - FM-Static
-------------------------------------------------------------------------------
Tabbed by: Laura
E-mail: thevenomousbite1996@aol.com

Tuning: Standard

Intro
e|----------------------------------------|----------------------------------------|
B|----------------------------------------|----------------------------------------|
G|-12-12-12--11-11-11-7-5-4/5-------------|-------7-7-7-4-5-5/4--------------------|
D|-x--x--x---x--x--x--x-x-x/x----(x3)-----|-5-5-5-x-x-x-x-x-x/x----(x1)------------|
A|-10-10-10--9--9--9--5-3-2/3-------------|-5-5-5-5-5-5-2-3-3/2--------------------|
E|----------------------------------------|-3-3-3----------------------------------|

Verse 1
                                                          (its hard to get over)
e|----------------------------|-------------------------|--------------------------|
B|----------------------------|-------------------------|--------------------------|
G|------------------4444-5555-|------------------4!-5!--|----7-7-7-7---------------|
D|-55555555---------4444-5555-|-55555555---------4!-5!--|----7-7-7-7---------------|
A|-55555555--(x7)---2222-3333-|-55555555--(x7)---2!-3!--|----5-5-5-5---------------|
E|-33333333-------------------|-33333333----------------|--------------------------|
   ********                     ********        

Chorus
e|---------------------------------------------------------------------------------|
B|---------------------------------------------------------------------------------|
G|----------7-7-7-7--5-5-5-5--5-5-5-5------------7-7-7-7--4-4-4-4--5-5-5-5---------|
D|-5-5-5-5--7-7-7-7--5-5-5-5--5-5-5-5---5-5-5-5--7-7-7-7--4-4-4-4--5-5-5-5-(x2)----|
A|-5-5-5-5--5-5-5-5--3-3-3-3--3-3-3-3---5-5-5-5--5-5-5-5--2-2-2-2--3-3-3-3---------|
E|-3-3-3-3------------------------------3-3-3-3------------------------------------|

Intro
e|----------------------------------------|----------------------------------------|
B|----------------------------------------|----------------------------------------|
G|-12-12-12--11-11-11-7-5-4/5-------------|-------7-7-7-4-5-5/4--------------------|
D|-x--x--x---x--x--x--x-x-x/x----(x3)-----|-5-5-5-x-x-x-x-x-x/x----(x1)------------|
A|-10-10-10--9--9--9--5-3-2/3-------------|-5-5-5-5-5-5-2-3-3/2--------------------|
E|----------------------------------------|-3-3-3----------------------------------|

Verse 2
e|----------------------------------------|----------------------------------------|
B|----------------------------------------|----------------------------------------|
G|----------------44444444-55555555-------|----------------44444444-55555555-------|
D|-5~-------------44444444-55555555-------|-5~-------------44444444-55555555-------|
A|-5~-(let ring)--22222222-33333333-------|-5~-(let ring)--22222222-33333333-------|
E|-3~-------------------------------------|-3~-------------------------------------|
                                   
                                                 (its hard to get over)
e|-------------------------|--------------------|----------------------------------|
B|-------------------------|--------------------|----------------------------------|
G|-------7~----4~----5~----|-------7~----4!-5!--|----7-7-7-7-----------------------|
D|-5~----7~----4~----5~----|-5~----7~----4!-5!--|----7-7-7-7-----------------------|
A|-5~----5~----2~----3~----|-5~----5~----2!-3!--|----5-5-5-5-----------------------|
E|-3~----------------------|-3~-----------------|----------------------------------|

Chorus
e|---------------------------------------------------------------------------------|
B|---------------------------------------------------------------------------------|
G|----------7-7-7-7--5-5-5-5--5-5-5-5------------7-7-7-7--4-4-4-4--5-5-5-5---------|
D|-5-5-5-5--7-7-7-7--5-5-5-5--5-5-5-5---5-5-5-5--7-7-7-7--4-4-4-4--5-5-5-5-(x2)----|
A|-5-5-5-5--5-5-5-5--3-3-3-3--3-3-3-3---5-5-5-5--5-5-5-5--2-2-2-2--3-3-3-3---------|
E|-3-3-3-3------------------------------3-3-3-3------------------------------------|


Post Chorus
e|-----------------------------|---------------------------|-----------------------|
B|-----------------------------|---------------------------|-----------------------|
G|-------------5555--7777------|-------------5555--7~------|-7--5------------------|
D|-5555--7777--5555--7777------|-5555--7777--5555--7~------|-7--5------------------|
A|-5555--7777--3333--5555------|-5555--7777--3333--5~------|-5--3------------------|
E|-3333--5555------------------|-3333--5555----------------|-----------------------|

Bridge
e|---------------------------------------------------------------------------------|
B|---------------------------------------------------------------------------------|
G|-----7--12--------7--12--------7--12--------4!-5!--------------------------------|
D|-5~--7--12----5~--7--12----5~--7--12----5~--4!-5!--------------------------------|
A|-5~--5--10----5~--5--10----5~--5--10----5~--2!-3!--------------------------------|
E|-3~-----------3~-----------3~-----------3~---------------------------------------|


Intro
e|----------------------------------------|----------------------------------------|
B|----------------------------------------|----------------------------------------|
G|-12-12-12--11-11-11-7-5-4/5-------------|-------7-7-7-4-5-5/4--------------------|
D|-x--x--x---x--x--x--x-x-x/x----(x3)-----|-5-5-5-x-x-x-x-x-x/x----(x1)------------|
A|-10-10-10--9--9--9--5-3-2/3-------------|-5-5-5-5-5-5-2-3-3/2--------------------|
E|----------------------------------------|-3-3-3----------------------------------|

Intro
e|----------------------------------------|----------------------------------------|
B|----------------------------------------|----------------------------------------|
G|-12-12-12--11-11-11-7-5-4/5-------------|-------7-7-7-4-5-5/4--------------------|
D|-x--x--x---x--x--x--x-x-x/x----(x3)-----|-5-5-5-x-x-x-x-x-x/x----(x1)------------|
A|-10-10-10--9--9--9--5-3-2/3-------------|-5-5-5-5-5-5-2-3-3/2--------------------|
E|----------------------------------------|-3-3-3----------------------------------|


************************************

| /   Slide up
| \   Slide down
| ~   Let ring
| x   Mute note
| *   Palm mute


************************************


Thanks! Please rate! :)
if there's something wrong with the tab please email me! :)
Tap to rate this tab
 
# A B C D E F G H I J K L M N O P Q R S T U V W X Y Z