Song name
# A B C D E F G H I J K L M N O P Q R S T U V W X Y Z

Foals - Spanish Sahara tab

Artist: Foals
Song: Spanish Sahara
Album: Total Life Forever
Tabbed by: Andri

The album isn't out yet, this is the promo single which can be heard (and seen) on 
or youtube.


This is the chord progression which is repeated throughout the song, just strum 
for the chorus.

        F       Am        C        Am     G
e|-----------------------------------------------|
B|o---------------------------------------------o|
G|------2--------5--------9---------5-----4------|
D|------3--------7--------10--------7-----5------|
A|o-----3--------7--------10--------7-----5-----o|
E|-----------------------------------------------|

These are the volume swells at 2:19 (they go on for longer).

e|---17---17---15---15---15---15---17---17---17---17---15---15---15---15---|
B|-------------------------------------------------------------------------|
G|-------------------------------------------------------------------------|
D|-------------------------------------------------------------------------|
A|-------------------------------------------------------------------------|
E|-------------------------------------------------------------------------|

Solo at 4:28

Gtr 1

e|-------------------------------------------------|
B|---13--13--12--12--12-/-10--10--10---------------|
G|------------------------------------10--12--9----|  X2
D|-------------------------------------------------|
A|-------------------------------------------------|
E|-------------------------------------------------|


e|--------------------------------------------------|
B|---13--13--12--12--12-/-10--10--10-/-12--12--12---|
G|--------------------------------------------------|
D|--------------------------------------------------|
A|--------------------------------------------------|
E|--------------------------------------------------|


e|-------------------------------------------------|
B|---13--13--12--12--12-----13--13--12--12--12-----|
G|-------------------------------------------------|
D|-------------------------------------------------|
A|-------------------------------------------------|
E|-------------------------------------------------|


e|-------------------------------------------------|
B|---13--13--12--12--12-/-10--10--10---------------|
G|------------------------------------10--12--9----|  X2
D|-------------------------------------------------|
A|-------------------------------------------------|
E|-------------------------------------------------|


e|--------------------------------------------------|
B|---13--13--12--12--12-/-10--10--10-/-12--12--12---|
G|--------------------------------------------------|
D|--------------------------------------------------|
A|--------------------------------------------------|
E|--------------------------------------------------|


e|----------------------------------------------------|
B|---10--12--10--12--12--10--12--12--10--12--12--12---|
G|----------------------------------------------------|
D|----------------------------------------------------|
A|----------------------------------------------------|
E|----------------------------------------------------|


During the second X2 Gtr 2 comes in playing higher notes which I just can't figure out completely,
however, I'm sure that these notes are in there.

e|---12---10---8---|
B|-----------------|
G|-----------------|
D|-----------------|
A|-----------------|
E|-----------------|

Then after the solo there are some repeated notes that I also can't
quite figure out.

If you know these last parts or have any corrections feel free to comment.

enjoy...
Tap to rate this tab
# A B C D E F G H I J K L M N O P Q R S T U V W X Y Z