Song name
# A B C D E F G H I J K L M N O P Q R S T U V W X Y Z

Folly - Broken tab

I'm not finished tabbing this song, will complete soon.

email: eatingthebear@gmail.com

this is one of my absolute favorite songs to play and i hope you enjoy!
palm mute = *

intro

guitar 1 (x8)
e|-----------|
B|-----------|
G|-----------|
D|-----------|
A|-0-0-0-0-0-|
D|-0-0-0-0-0-|
   * * * *

guitar 2 (x2)
e|-----------------------------------------------------|
B|-----10----13-11-10h11-10-------10----13-11-10h11-10-|
G|---10-------------------------10---------------------|
D|-12-------------------------12-----------------------|
A|-----------------------------------------------------|
D|-----------------------------------------------------|

e|-----------------------------------------------------|
B|-----10----13-11-10h11-10-------10-------10-11-10----|
G|---10-------------------------10-------12------------|
D|-12-------------------------12-----------------------|
A|-----------------------------------------------------|
D|-----------------------------------------------------|


guitar 1
e|-------------------------------|
B|-------------------------------|
G|-7-7-7-7-7-7-7-7-7-7-7-7-7-7-7-|
D|-8-8-8-8-8-8-8-8-8-8-8-8-8-8-8-|
A|-5-5-5-5-5-5-5-5-5-5-5-5-5-5-5-|
D|-------------------------------|


guitar 2
e|---------------|
B|---------------|
G|---------------|
D|---------------|
A|-0-0--0-0--0-0-|
D|-0-0--0-0--0-0-|
   * *  * *  * *

_____________________________________________________________________________


guitar 1
e|----------------------------------------------------------------|
B|----------------------------------------------------------------|
G|-----14------14------14------14------16------16------16------16-|
D|-----15------15------15------15------17------17------17------17-|
A|-0-0-12--0-0-12--0-0-12--0-0-12--0-0-14--0-0-14--0-0-14--0-0-14-|
D|-0-0-----0-0-----0-0-----0-0-----0-0-----0-0-----0-0-----0-0----|
   * *     * *     * *     * *     * *     * *     * *     * *
e|----------------------------------------------------------------|
B|----------------------------------------------------------------|
G|-----17------17------17------17---x-9--9--8--8--9--9--8--8------|
D|-----18------18------18------18---x-10-10-9--9--10-10-9--9------|
A|-0-0-15--0-0-15--0-0-15--0-0-15---x-7--7--6--6--7--7--6--6------|
D|-0-0-----0-0-----0-0-----0-0------------------------------------|
   * *     * *     * *     * *      *
e|----------------------------------------------------------------|
B|----------------------------------------------------------------|
G|-----14------14------14------14------16------16------16------16-|
D|-----15------15------15------15------17------17------17------17-|
A|-0-0-12--0-0-12--0-0-12--0-0-12--0-0-14--0-0-14--0-0-14--0-0-14-|
D|-0-0-----0-0-----0-0-----0-0-----0-0-----0-0-----0-0-----0-0----|
   * *     * *     * *     * *     * *     * *     * *     * *
e|--------------------------------|
B|--------------------------------|
G|-----17------17------17------17-|
D|-----18------18------18------18-|
A|-0-0-15--0-0-15--0-0-15--0-0-15-|
D|-0-0-----0-0-----0-0-----0-0----|
   * *     * *     * *     * *

guitar 2
e|----------------------------------------------------------------|
B|----------------------------------------------------------------|
G|----------------------------------------------------------------|
D|----------------------------------------------------------------|
A|-0-0-----0-0-----0-0-----0-0-----0-0-----0-0-----0-0-----0-0----|
D|-0-0-----0-0-----0-0-----0-0-----0-0-----0-0-----0-0-----0-0----|
   * *     * *     * *     * *     * *     * *     * *     * *
e|----------------------------------------------------------------|
B|----------------------------------------------------------------|
G|----------------------------------------------------------------|
D|----------------------------------------------------------------|
A|-0-0-----0-0-----0-0-----0-0--------0--0--0--0--0--0--0--0------|
D|-0-0-----0-0-----0-0-----0-0--------0--0--0--0--0--0--0--0------|
   * *     * *     * *     * *        *  *  *  *  *  *  *  *
e|----------------------------------------------------------------|
B|----------------------------------------------------------------|
G|----------------------------------------------------------------|
D|----------------------------------------------------------------|
A|-0-0-----0-0-----0-0-----0-0-----0-0-----0-0-----0-0-----0-0----|
D|-0-0-----0-0-----0-0-----0-0-----0-0-----0-0-----0-0-----0-0----|
   * *     * *     * *     * *     * *     * *     * *     * *
e|-----------------------------|
B|-----------------------------|
G|-----------------------------|
D|-----------------------------|
A|-0-0-----0-0-----0-0-----0-0-|
D|-0-0-----0-0-----0-0-----0-0-|
   * *     * *     * *     * *
Tap to rate this tab
# A B C D E F G H I J K L M N O P Q R S T U V W X Y Z