Song name
# A B C D E F G H I J K L M N O P Q R S T U V W X Y Z

Fonzie - Lost tab

====================================
               Fonzie
               "Lost"
Track #9 on the "Shout It Out" album
====================================

Tabbed by Pedro Macedo, A.K.A. Linkerman
Comments and ratings are very much appreciated!
E-mails to "o_samaritano-hellboy(at)sapo.pt"


Drop-D tuning


Intro
e||------------||
B||o-----6----o||
G||---6-6-6-6--||
D||--8-8---8---||
A||o----------o||
D||------------||

e|-----------------------------------|
B|-----------------------------------|
G|-151515-13-10101010-66-88-10101010-| x2
D|--x-x-x--x--x-x-x-x-xx-xx--x-x-x-x-|
A|-131313-11--8-8-8-8-44-66--8-8-8-8-|
D|-----------------------------------|


Verse
e|----------------------------|
B|----------------------------|
G|-1010--10\-88--1010--10\-66-| x2
D|--x-x---x--xx---x-x---x--xx-|
A|--8-8---8\-66---8-8---8\-44-|
D|----------------------------|


Pre-Chorus            x3
e||-------------------||-------------------|
B||o-----------------o||-------------------|
G||--3-3-6-6----------||-------------------|
D||--3-3-6-6-1-1-4-4--||-11111111-44444444-|
A||o-1-1-4-4-1-1-4-4-o||-11111111-44444444-|
D||----------1-1-4-4--||-11111111-44444444-|
                          .......  ...     P.M.

Chorus 1
e|------------------------------------|
B|------------------------------------|
G|-3333-6666----------3333-6666-------|
D|-3333-6666-44444444-3333-6666-44444-|
A|-1111-4444-44444444-1111-4444-44444-|
D|-----------44444444-----------44444-|


Play Verse
Play Pre-Chorus


Chorus 2
e||----------------------||---------------------||
B||o--------------------o||o-------------------o||
G||--3333-6666-----------||---------------------||
D||--3333-6666-44444444--||--66666666-88888888--||
A||o-1111-4444-44444444-o||o-66666666-88888888-o||
D||------------44444444--||--66666666-88888888--||


Bridge
e|------------------------|
B|------------------------|
G|------------------------|
D|-8-6-4-3-4-6-8-88888888-|
A|-8-6-4-3-4-6-8-88888888-|
D|-8-6-4-3-4-6-8-88888888-|
                 ....     P.M.


Solo
e|-----------9~-99p6-6~--------------------------|
B|-/11~-9h11------------11-11-9-9----------------|
G|--------------------------------10-10----------|
D|--------------------------------------11-11-8~-|
A|-----------------------------------------------|
D|-----------------------------------------------|

e|----------------------------------------------------|
B|-------------------------------------9--------------|
G|---------------------------------/10---8br8br8br8br-|
D|-11-10---------8-11-10------------------------------|
A|-------11-8-11---------11-8-/13~--------------------|
D|----------------------------------------------------|

e|-------------------------------------------------|
B|---------------------------------9---------------|
G|-6--------6----/10~-8p6h8~-\---10--8br8br8br8br6-|
D|---8p6h8-6--8p6--------------/8------------------|
A|-------------------------------------------------|
D|-------------------------------------------------|

e|-13brbrbr--------------------------------------------|
B|----------1/~~~~--------1/~~~~-----------------------|
G|-----------------1/~~~~--------1/~~~~8-/10-/13-/15~~-|
D|-----------------------------------------------------|
A|-----------------------------------------------------|
D|-----------------------------------------------------|


Final Pre-Chorus
e|-----------------|-------------------|
B|-----------------|-------------------|
G|-3-3-6-6---------|-------------------|
D|-3-3-6-6-1-1-4-4-|-11111111-44444444-|
A|-1-1-4-4-1-1-4-4-|-11111111-44444444-|
D|---------1-1-4-4-|-11111111-44444444-|
                      .......  ...     P.M.


Final Chorus             x4                               x4
e||----------------------||-------------------------------||----|
B||o--------------------o||o-----------------------------o||----|
G||--3333-6666-----------||--666-888-101010-111111111111--||-6~-|
D||--3333-6666-44444444--||--xxx-xxx--x-x-x--x-x-x-x-x-x--||-x--|
A||o-1111-4444-44444444-o||o-444-666--8-8-8--9-9-9-9-9-9-o||-4~-|
D||------------44444444--||-------------------------------||----|

End with Intro alternated picking, slowing down
Tap to rate this tab
# A B C D E F G H I J K L M N O P Q R S T U V W X Y Z