Song name
# A B C D E F G H I J K L M N O P Q R S T U V W X Y Z

Foo Fighters - Walk tab

-------------------------------------------------------------------------------
			     Walk - Foo Fighters
-------------------------------------------------------------------------------
Tabbed by: Jimbompaleen
Email: poo_face_63@hotmail.com

Tuning: Standard

Guitar 1: Dave Grohl
Guitar 2: Chris Shiflett

Last song from their new album Wasting Light.
All tabbed by ear. Enjoy

Intro
Guitar 1 x2
e|---------------------------------|
B|---------------------------------|
G|-9---9---9-----9-------9---------|
D|-7-7-7-7-7-7-7-7-7-7-7-7-7-7-7-7-|
A|-0-0-0-0-0-0-0-0-0-0-0-0-0-0-0-0-|
E|---------------------------------|
Pm . . . . . . . . . . . . . . . .

Guitar 2 x2
e|--------7-----------|
B|---10------10---10~-|
G|-9----9-------9-----|
D|--------------------|
A|--------------------|
E|--------------------|


Verse 1
Guitar 1 x4
e|---------------------------------|
B|---------------------------------|
G|-9---9---9-----9-------9---------|
D|-7-7-7-7-7-7-7-7-7-7-7-7-7-7-7-7-|
A|-0-0-0-0-0-0-0-0-0-0-0-0-0-0-0-0-|
E|---------------------------------|
Pm . . . . . . . . . . . . . . . .

Guitar 1 x2
e|----------------------------------------------------------------|
B|----------------------------------------------------------------|
G|-9-9-9-9-9-9-9-9-9-9-9-9-9-9-9-9-9-9-9-9-9-9-9-9-9-9-9-9-9-9-9--|
D|-7-7-7-7-7-7-7-7-7-7-7-7-7-7-7-7-9-9-9-9-9-9-9-9-9-9-9-9-9-9-9--|
A|-0-0-0-0-0-0-0-0-0-0-0-0-0-0-0-0-7-7-7-7-7-7-7-7-7-7-7-7-7-7-7--|
E|----------------------------------------------------------------|
Pm . . . . . . . . . . . . . . . . . . . . . . . . . . . . . . .

e
B|----------------------------------------------------------------|
G|---------------------------------7-7-7-7-7-7-7-7-7-7-7-7-7-7-7--|
D|-9-9-9-9-9-9-9-9-9-9-9-9-9-9-9-9-7-7-7-7-7-7-7-7-7-7-7-7-7-7-7--|
A|-9-9-9-9-9-9-9-9-9-9-9-9-9-9-9-9-5-5-5-5-5-5-5-5-5-5-5-5-5-5-5--|
E|-7-7-7-7-7-7-7-7-7-7-7-7-7-7-7-7--------------------------------|
Pm . . . . . . . . . . . . . . . . . . . . . . . . . . . . . . .

Guitar 1
e|----------------------------------------------------------------|
B|----------------------------------------------------------------|
G|-9-9-9-9-9-9-9-9-9-9-9-9-9-9-9-9-9-9-9-9-9-9-9-9-9-9-9-9-9-9-9--|
D|-7-7-7-7-7-7-7-7-7-7-7-7-7-7-7-7-9-9-9-9-9-9-9-9-9-9-9-9-9-9-9--|
A|-0-0-0-0-0-0-0-0-0-0-0-0-0-0-0-0-7-7-7-7-7-7-7-7-7-7-7-7-7-7-7--|
E|----------------------------------------------------------------|
Pm . . . . . . . . . . . . . . . . . . . . . . . . . . . . . . .

e
B|------------------------------------------------------------------|
G|---------------------------------7-7-7-7-9-9-9-9-1010101012121212-|
D|-9-9-9-9-9-9-9-9-9-9-9-9-9-9-9-9-x-x-x-x-x-x-x-x-x-x-x-x-x-x-x-x--|
A|-9-9-9-9-9-9-9-9-9-9-9-9-9-9-9-9-5-5-5-5-7-7-7-7-8-8-8-8-10101010-|
E|-7-7-7-7-7-7-7-7-7-7-7-7-7-7-7-7----------------------------------|
Pm . . . . . . . . . . . . . . . . . . . . . . . . . . . . . . . .


Guitar 2 x2
e|--------7-------------------7-------------------7-------7~------------7------------|
B|---10------10---10~-----9------9---10~-----10------10-----------10-------10----10~-|
G|-9----9-------9-------9---9------9-------7----7-------7------10----10-------10-----|
D|-----------------------------------------------------------------------------------|
A|-----------------------------------------------------------------------------------|
E|-----------------------------------------------------------------------------------|

e|--------7-------------------7-------------------7-------7~------------7--------8~--|
B|---10------10---10~-----9------9---10~-----10------10-----------10-------10--------|
G|-9----9-------9-------9---9------9-------7----7-------7------10----10-------10-----|
D|-----------------------------------------------------------------------------------|
A|-----------------------------------------------------------------------------------|
E|-----------------------------------------------------------------------------------|


Guitar 1 x2
e|---------------------------------|
B|---------------------------------|
G|-2-2-2-2-2-2-2-2-2-2-2-2-2-2-2-2-|
D|-2-2-2-2-2-2-2-2-2-2-2-2-2-2-2-2-|
A|-0-0-0-0-0-0-0-0-0-0-0-0-0-0-0-0-|
E|---------------------------------|


Guitar 2 x2
e|---------------------------------|
B|---------------------------------|
G|-9-9-9-9-9-9-9-9-9-9-9-9-9-9-9-9-|
D|-7-7-7-7-7-7-7-7-7-7-7-7-7-7-7-7-|
A|-0-0-0-0-0-0-0-0-0-0-0-0-0-0-0-0-|
E|---------------------------------|


Verse 2
Guitar 1
e|----------------------------------------------------------------------------------|
B|---------------------------------------------------------3-3--3-3-3--3-3-3--3-3-3-|
G|-2-2--2-2-2--2-2-2--2-2-2--2-1-1--1-1-1--1-1-1--1-1-1--1-4-4--4-4-4--4-4-4--4-4-4-|
D|-2-2--2-2-2--2-2-2--2-2-2--2-2-2--2-2-2--2-2-2--2-2-2--2-4-4--4-4-4--4-4-4--4-4-4-|
A|-0-0--0-0-0--0-0-0--0-0-0--0-2-2--2-2-2--2-2-2--2-2-2--2-2-2--2-2-2--2-2-2--2-2-2-|
E|-----------------------------0-0--0-0-0--0-0-0--0-0-0--0--------------------------|

e|--------------------------------|
B|-3-6-6--6-6-6--6-6-6--6-6-6-6-6-|
G|-4-7-7--7-7-7--7-7-7--7-7-7-7-7-|
D|-4-7-7--7-7-7--7-7-7--7-7-7-7-7-|
A|-2-5-5--5-5-5--5-5-5--5-5-5-5-5-|
E|--------------------------------|

e|----------------------------------------------------------------------------------|
B|---------------------------------------------------------3-3--3-3-3--3-3-3--3-3-3-|
G|-2-2--2-2-2--2-2-2--2-2-2--2-1-1--1-1-1--1-1-1--1-1-1--1-4-4--4-4-4--4-4-4--4-4-4-|
D|-2-2--2-2-2--2-2-2--2-2-2--2-2-2--2-2-2--2-2-2--2-2-2--2-4-4--4-4-4--4-4-4--4-4-4-|
A|-0-0--0-0-0--0-0-0--0-0-0--0-2-2--2-2-2--2-2-2--2-2-2--2-2-2--2-2-2--2-2-2--2-2-2-|
E|-----------------------------0-0--0-0-0--0-0-0--0-0-0--0--------------------------|

e|------------------------------------|
B|------------------------------------|
G|-7--7-779--9-9910-10101012--12-1212-|
D|-x--x-xxx--x-xxx--x-x-x-x---x--x-x--|
A|-5--5-557--7-778--8-8-8-10--10-1010-|
E|------------------------------------|


Guitar 2 (Don't know if this is right but it sounds good to me)
e|---------------------------------------------------------|
B|-1010-101010-101010-101010-109-9--9-9-9--9-1010-109-9--9-|
G|-9-9--9-9-9--9-9-9--9-9-9--9-9-9--9-9-9--9-9-9--9-9-9--9-|
D|-7-7--7-7-7--7-7-7--7-7-7--7-x-x--x-x-x--x-x-x--x-x-x--x-|
A|-0-0--0-0-0--0-0-0--0-0-0--0-7-7--7-7-7--7-7-7--7-7-7--7-|
E|---------------------------------------------------------|

e|-----------------------------------------------------------|
B|-1010-101010-101010-101010-101010-101010-101010-1010101010-|
G|-1111-111111-111111-111111-111010-101010-101010-1010101010-|
D|-x-x--x-x-x--x-x-x--x-x-x--x-x-x--x-x-x--x-x-x--x-x-x-x-x--|
A|-9-9--9-9-9--9-9-9--9-9-9--9-8-8--8-8-8--8-8-8--8-8-8-8-8--|
E|-----------------------------------------------------------|

e|---------------------------------------------------------|
B|-1010-101010-101010-101010-109-9--9-9-9--9-1010-109-9--9-|
G|-9-9--9-9-9--9-9-9--9-9-9--9-9-9--9-9-9--9-9-9--9-9-9--9-|
D|-7-7--7-7-7--7-7-7--7-7-7--7-x-x--x-x-x--x-x-x--x-x-x--x-|
A|-0-0--0-0-0--0-0-0--0-0-0--0-7-7--7-7-7--7-7-7--7-7-7--7-|
E|---------------------------------------------------------|

e|------------------------------------------------------------------|
B|-1010-101010-101010-101010----------------------------------------|
G|-1111-111111-111111-111111------------9--9-9910-101010------------|
D|-x-x--x-x-x--x-x-x--x-x-x--12--12-1212x--x-xxx--x-x-x-12--12-1212-|
A|-9-9--9-9-9--9-9-9--9-9-9--x---x--x-x-7--7-778--8-8-8-x---x--x-x--|
E|---------------------------10--10-1010----------------10--10-1010-|


Chorus
Guitar 1 x2
e|-----------------------------------------------------------------|
B|-----------------------------------------------------------------|
G|-2-2-2-2-2-2-2-2-2-2-2-2-2-2-2-2-1-1-1-1-1-1-1-1-1-1-1-1-1-1-1-1-|
D|-2-2-2-2-2-2-2-2-2-2-2-2-2-2-2-2-2-2-2-2-2-2-2-2-2-2-2-2-2-2-2-2-|
A|-0-0-0-0-0-0-0-0-0-0-0-0-0-0-0-0-2-2-2-2-2-2-2-2-2-2-2-2-2-2-2-2-|
E|---------------------------------0-0-0-0-0-0-0-0-0-0-0-0-0-0-0-0-|

e|-------------------------------------------------------------------|
B|-3-3-3-3-3-3-3-3-3-3-3-3-3-3-3-3-----------------------------------|
G|-4-4-4-4-4-4-4-4-4-4-4-4-4-4-4-4-7--7-779--9-9910-10101012--12-1212-|
D|-4-4-4-4-4-4-4-4-4-4-4-4-4-4-4-4-x--x-xxx--x-xxx--x-x-x-x---x--x-x--|
A|-2-2-2-2-2-2-2-2-2-2-2-2-2-2-2-2-5--5-557--7-778--8-8-8-10--10-1010-|
E|--------------------------------------------------------------------|


Guitar 2 x2
e|-----------------------------------------------------------------|
B|-101010101010101010101010101010109-9-9-9-9-9-9-9-101010109-9-9-9-|
G|-9-9-9-9-9-9-9-9-9-9-9-9-9-9-9-9-9-9-9-9-9-9-9-9-9-9-9-9-9-9-9-9-|
D|-7-7-7-7-7-7-7-7-7-7-7-7-7-7-7-7-x-x-x-x-x-x-x-x-x-x-x-x-x-x-x-x-|
A|-0-0-0-0-0-0-0-0-0-0-0-0-0-0-0-0-7-7-7-7-7-7-7-7-7-7-7-7-7-7-7-7-|
E|-----------------------------------------------------------------|

e|-------------------------------------------------------------------------|
B|-10101010101010101010101010101010----------------------------------------|
G|-11111111111111111111111111111111------------9--9-9910-101010------------|
D|-x-x-x-x-x-x-x-x-x-x-x-x-x-x-x-x--12--12-1212x--x-xxx--x-x-x-12--12-1212-|
A|-9-9-9-9-9-9-9-9-9-9-9-9-9-9-9-9--x---x--x-x-7--7-778--8-8-8-x---x--x-x--|
E|----------------------------------10--10-1010----------------10--10-1010-|


Bridge
Guitar 1 x3
e|-----------------------------------------------------------------|
B|-----------------------------------------------------------------|
G|-2-2-2-2-2-2-2-2-2-2-2-2-2-2-2-2-2-2-2-2-2-2-2-2-2-2-2-2-2-2-2-2-|
D|-2-2-2-2-2-2-2-2-2-2-2-2-2-2-2-2-2-2-2-2-2-2-2-2-2-2-2-2-2-2-2-2-|
A|-0-0-0-0-0-0-0-0-0-0-0-0-0-0-0-0-0-0-0-0-0-0-0-0-0-0-0-0-0-0-0-0-|
E|-----------------------------------------------------------------|

e|-----------------------------------------------------------------|
B|-----------------------------------------------------------------|
G|-1-1-1-1-1-1-1-1-1-1-1-1-1-1-1-1-1-1-1-1-1-1-1-1-1-1-1-1-1-1-1-1-|
D|-2-2-2-2-2-2-2-2-2-2-2-2-2-2-2-2-2-2-2-2-2-2-2-2-2-2-2-2-2-2-2-2-|
A|-2-2-2-2-2-2-2-2-2-2-2-2-2-2-2-2-2-2-2-2-2-2-2-2-2-2-2-2-2-2-2-2-|
E|-0-0-0-0-0-0-0-0-0-0-0-0-0-0-0-0-0-0-0-0-0-0-0-0-0-0-0-0-0-0-0-0-|

e|-------------------------------------------------1-1-1-1-1-1-1-1-|
B|-2-2-2-2-2-2-2-2-2-2-2-2-2-2-2-2-3-3-3-3-3-3-3-3-3-3-3-3-3-3-3-3-|
G|-2-2-2-2-2-2-2-2-2-2-2-2-2-2-2-2-2-2-2-2-2-2-2-2-2-2-2-2-2-2-2-2-|
D|-x-x-x-x-x-x-x-x-x-x-x-x-x-x-x-x-0-0-0-0-0-0-0-0-0-0-0-0-0-0-0-0-|
A|-x-x-x-x-x-x-x-x-x-x-x-x-x-x-x-x---------------------------------|
E|-2-2-2-2-2-2-2-2-2-2-2-2-2-2-2-2---------------------------------|


Guitar 2 x5 
e|--------------------------|	
B|--------------------------|	
G|---6-6-7-7--9-9--11-13-14-|	
D|---x-x-x-x--x-x--x--x--x--|	
A|---4-4-5-5--7-7--9--11-12-|	
E|--------------------------|	
(Plays both these parts twice)	
e|-------------------------------|	
B|-------------------------------|	
G|---6-6-7-7--10101010101012--14-|	
D|---x-x-x-x--x-x-x-x-x-x-x---x--|	
A|---4-4-5-5--8-8-8-8-8-8-10--12-|	
E|-------------------------------|	


Guitar 2	
e|-9-9-9-9-9-9-9-9-9-9-9-9-9-9-9-9-9-9-9-9-9-9-9-9-9-9-9-9-10109-9-9--|
B|-101010101010101010101010101010101010101010101010101010101010101010-|
G|-9-9-9-9-9-9-9-9-9-9-9-9-9-9-9-9-9-9-9-9-9-9-9-9-9-9-9-9-9-9-9-9-9--|
D|--------------------------------------------------------------------|
A|--------------------------------------------------------------------|
E|--------------------------------------------------------------------|

e|-7-7-7-7-7-7-7-7-7-7-7-7-7-7-7-7-7-7-7-7-7-7-7-7-7-7-7-7-7-7-7-7-|
B|-9-9-9-9-9-9-9-9-9-9-9-9-9-9-9-9-9-9-9-9-9-9-9-9-9-9-9-9-9-9-9-9-|
G|-9-9-9-9-9-9-9-9-9-9-9-9-9-9-9-9-9-9-9-9-9-9-9-9-9-9-9-9-9-9-9-9-|
D|-----------------------------------------------------------------|
A|-----------------------------------------------------------------|
E|-----------------------------------------------------------------|

e|-9-9-9-9-9-9-9-9-9-9-9-9-9-9-9-9-10101010101010101010101010101010-|
B|-7-7-7-7-7-7-7-7-7-7-7-7-7-7-7-7-7-7-7-7-7-7-7-7-6-6-6-6-6-6-6-6--|
G|-6-6-6-6-6-6-6-6-6-6-6-6-6-6-6-6-7-7-7-7-7-7-7-7-7-7-7-7-7-7-7-7--|
D|------------------------------------------------------------------|
A|------------------------------------------------------------------|
E|------------------------------------------------------------------|


Chorus 
Guitar 1
e|---------------------------|
B|---------------------------|
G|-2~-------------2*--2*--2--|
D|-2~-------------2*--2*--2--|
A|-0~-------------0*--0*--0--|
E|---------------------------|


Guitar 2
e|---------------------------|
B|-10~------------10*-10*-10-|
G|-9~-------------9*--9*--9--|
D|-7~-------------7*--7*--7--|
A|-0~-------------0*--0*--0--|
E|---------------------------|
*Quickly cut off

Then play rest of Chorus


Guitar 2 plays the first part of the bridge for a bit


Outro
Guitar 1 x2
e|----------------------------------|
B|----------------------------------|
G|-7--7-779--9-9910--10-10109--9-99-|
D|-x--x-xxx--x-xxx---x--x-x-x--x-xx-|
A|-5--5-557--7-778---8--8-8-7--7-77-|
E|----------------------------------|


Guitar 2 x2
e|----------------------------------------------|
B|----------------------------------------------|
G|-14--14-141412--12-121210--10-101012--12-1212-|
D|-x---x--x-x-x---x--x-x-x---x--x-x-x---x--x-x--|
A|-12--12-121210--10-10108---8--8-8-10--10-1010-|
E|----------------------------------------------|


Guitar 1
e|--------------------------------------------------------------------|
B|--------------------------------------------------------------------|
G|-2-2-2-2-2-2-2-2-2-2-2-2-2-2-2-2-2-2-2-2-2-2-2-2-2-2-2-2-2-2-2-2-2--|
D|-2-2-2-2-2-2-2-2-2-2-2-2-2-2-2-2-2-2-2-2-2-2-2-2-2-2-2-2-2-2-2-2-2--|
A|-0-0-0-0-0-0-0-0-0-0-0-0-0-0-0-0-0-0-0-0-0-0-0-0-0-0-0-0-0-0-0-0-0--|
E|--------------------------------------------------------------------|


Guitar 2
e|---------------------------------------------------------------------|
B|---------------------------------1010101010101010101010101010101010--|
G|-9-9-9-9-9-9-9-9-9-9-9-9-9-9-9-9-9-9-9-9-9-9-9-9-9-9-9-9-9-9-9-9-9---|
D|-7-7-7-7-7-7-7-7-7-7-7-7-7-7-7-7-7-7-7-7-7-7-7-7-7-7-7-7-7-7-7-7-7---|
A|-0-0-0-0-0-0-0-0-0-0-0-0-0-0-0-0-0-0-0-0-0-0-0-0-0-0-0-0-0-0-0-0-0---|
E|---------------------------------------------------------------------|


It's all there I just got kinda lazy in putting it together..


************************************

| /   slide up
| \   slide down
| h   hammer-on
| p   pull-off
| ~   vibrato
| +   harmonic
| x   Mute note
| b   Bend
| pb  Pre-bend
| br  Bend release
| pbr Pre-bend release
| brb Bend release bend

************************************
Tap to rate this tab
 
# A B C D E F G H I J K L M N O P Q R S T U V W X Y Z