Guitaretab - guitar tabs
Song name
# A B C D E F G H I J K L M N O P Q R S T U V W X Y Z

Foo Fighters - Another Round tab

Tabbed by: Antwan The Swan
Email: Rockinfreakawhat@hotmail.co.uk

This is my very first tab, so please don't be too harsh!:)
Easy to play, but a great song nonetheless!
Enjoy.


Tuning:Standard

Verse 1:

 G            Dm
When she goes storming out,
Am        C 
I run for cover
G             Dm
Rolling like thunder clouds,
Am      C
Hanging above her,
G           Dm
Ring in the witching hour,
Am                 c
Spells that I'm singing,
G             Dm
Rain come and drown me out,
Am      C    Dm 
Sinking deep below

Chorus:

G5              A7
  Can you go another round?
E7                  Cm       G5
  I will follow you down and out,
              A7          
  Let's go another round,
E7                  Cm   
  I will follow you down and...

Verse 2

Chorus

Harmonica Solo (Tabbed Out)

e|--------------------------15--13--12---------------------------------------|
B|----/15----15h17p15-------------------15--13------13-----------------------|
G|-----------------------------------------------------b14--12---------------|
D|---------------------------------------------------------------------------|
A|---------------------------------------------------------------------------|
E|---------------------------------------------------------------------------|
[ Tab from: http://www.guitaretab.com/f/foo-fighters/60490.html ]
e|--------------------------15--13--12------------------------15--13--12-----|
B|---/15-----13h15p13h15----------------13-15-13-15--------------------------|
G|---------------------------------------------------------------------------|
D|---------------------------------------------------------------------------|
A|---------------------------------------------------------------------------|
E|---------------------------------------------------------------------------|

e|---------------------------------------13----------------------------------|
B|--/15-------13h15----13h15---------15-----15-13-15-------------------------|
G|----------------------------------------------------b14-12-----------------|
D|---------------------------------------------------------------------------|
A|---------------------------------------------------------------------------|
E|---------------------------------------------------------------------------|

e|----------------13----13----13---------------------------------------------|
B|------b13----15----15----15----~15~-------------------------12-13-12-/15---|
G|--12----------------------------------b14-b14-12-b14-12--------------------|
D|---------------------------------------------------------------------------|
A|---------------------------------------------------------------------------|
E|---------------------------------------------------------------------------|


Lyrics & Structure:

Verse 2
We could just lay around,
Stare at the ceiling,
Want to forget about,
One for the feeling,
Room full of photographs,
Box full of letters,
Come on make it last,
Nothing else matters right now

Chorus
Can you go another round?
I will follow you down and out,
Let's go another round,
I will follow you down and out

Harmonica (Guitar) Solo.

Chorus
Can you go another round?
I will follow you down and out,
Lets' go another round,
I will follow you down and out,

Let's go another round?
I will bother you down and out,
Let's go another round,
I will follow you down and out



| /  slide up
| \  slide down
| h  hammer-on
| p  pull-off
| ~  vibrato
| +  harmonic
| x  Mute note
===============================================================================
Related for Another Round tab
×
Another Round