Guitaretab - guitar tabs
Song name
# A B C D E F G H I J K L M N O P Q R S T U V W X Y Z

Foo Fighters - Monkey Wrench tab

Intro  
Guitar 1
e|-------|--------------------------------------------------------------------|
B|-------|--------------------------------------------------------------------|
G|-------|o-11-11-9-9-8-8-6-6-9-9-8-8-6-6-4-4-6-6-4-4-1-1-4-4-6-6-4-4-6b-6-4-o|
D|-------|o------------------------------------------------------------------o|
A|--15/--|--------------------------------------------------------------------|
D|-------|--------------------------------------------------------------------|
|Guitar 2
|------------------------------------------------------------------------|
|------------------------------------------------------------------------|
|o-4-4-4-4-4-4-4-4-4-4-4-4----------------------------------------------o|
|o-4-4-4-4-4-4-4-4-4-4-4-4--4-4-4-4--2-2-2-2-2-2-2-2-2-2-2-2--0-2-0-2-0-o|
|--2-2-2-2-2-2-2-2-2-2-2-2--4-4-4-4--2-2-2-2-2-2-2-2-2-2-2-2--0-2-0-2-0--|
|---------------------------4-4-4-4--2-2-2-2-2-2-2-2-2-2-2-2--0-2-0-2-0--|

Verse   G.1 & G.2
|-------------------------------------------------------------------------|
|-------------------------------------------------------------------------|
|o-4--4-4-4-4-4-4-4-4-4-4-4----------------------------------------------o|
|o-4--4-4-4-4-4-4-4-4-4-4-4--4-4-4-4--2-2-2-2-2-2-2-2-2-2-2-2--0-2-0-2-0-o|x4
|--2--2-2-2-2-2-2-2-2-2-2-2--4-4-4-4--2-2-2-2-2-2-2-2-2-2-2-2--0-2-0-2-0--|
|----------------------------4-4-4-4--2-2-2-2-2-2-2-2-2-2-2-2--0-2-0-2-0--|
     PM . . . . . . . . . .  . . . .  . . . . . . . . . . . .  

Pre-chorus   G.1 & G.2
|------------------------------|
|------------------------------|
|o----------------------------o|
|o-2-2--0--2-2--0--2--0--2--0-o|   x3
|--2-2--0--2-2--0--2--0--2--0--|
|--2-2--0--2-2--0--2--0--2--0--|

Chorus   G.1 & G.2
|--------|---------------------------------------------|
|--------|---------------------------------------------|
|--------|o-4-4-4-4---------------------------------5-o|
|--------|o-4-4-4-4--6-6-6-6--4--2-2-2--4--2--4--2--5-o|   x4
|--2/15--|--2-2-2-2--6-6-6-6--4--2-2-2--4--2--4--2--3--|
|--2/15--|-----------6-6-6-6--4--2-2-2--4--2--4--2-----|

Interlude 
G.1 
|-------|--------------------------------------------------------------------|
|-------|--------------------------------------------------------------------|
|-------|o-11-11-9-9-8-8-6-6-9-9-8-8-6-6-4-4-6-6-4-4-1-1-4-4-6-6-4-4-6b-6-4-o|
|-------|o------------------------------------------------------------------o|
|--15\--|--------------------------------------------------------------------|
|-------|--------------------------------------------------------------------|
G.2
|------------------------------------------------------------------------|
|------------------------------------------------------------------------|
|o-4-4-4-4-4-4-4-4-4-4-4-4----------------------------------------------o|
|o-4-4-4-4-4-4-4-4-4-4-4-4--4-4-4-4--2-2-2-2-2-2-2-2-2-2-2-2--0-2-0-2-0-o|
|--2-2-2-2-2-2-2-2-2-2-2-2--4-4-4-4--2-2-2-2-2-2-2-2-2-2-2-2--0-2-0-2-0--|
|---------------------------4-4-4-4--2-2-2-2-2-2-2-2-2-2-2-2--0-2-0-2-0--|

Verse   G.1 & G.2  
|-------------------------------------------------------------------------|
|-------------------------------------------------------------------------|
|o-4--4-4-4-4-4-4-4-4-4-4-4----------------------------------------------o|
|o-4--4-4-4-4-4-4-4-4-4-4-4--4-4-4-4--2-2-2-2-2-2-2-2-2-2-2-2--0-2-0-2-0-o|x4
|--2--2-2-2-2-2-2-2-2-2-2-2--4-4-4-4--2-2-2-2-2-2-2-2-2-2-2-2--0-2-0-2-0--|
|----------------------------4-4-4-4--2-2-2-2-2-2-2-2-2-2-2-2--0-2-0-2-0--|
      PM  . . . . . . . . .  . . . .  . . . . . . . . . . . .  

Pre-chorus   G.1 & G.2
|------------------------------|
|------------------------------|
|o----------------------------o|
|o-2-2--0--2-2--0--2--0--2--0-o|   x3  
|--2-2--0--2-2--0--2--0--2--0--|
|--2-2--0--2-2--0--2--0--2--0--|
[ Tab from: http://www.guitaretab.com/f/foo-fighters/6611.html ]
Chorus   G.1 & G.2
|--------|---------------------------------------------|
|--------|---------------------------------------------|
|--------|o-4-4-4-4---------------------------------5-o|
|--------|o-4-4-4-4--6-6-6-6--4--2-2-2--4--2--4--2--5-o|   x4
|--2/15--|--2-2-2-2--6-6-6-6--4--2-2-2--4--2--4--2--3--|
|--2/15--|-----------6-6-6-6--4--2-2-2--4--2--4--2-----|

Bridge   G.1 & G.2
|------------------------------------------|
|------------------------------------------|
|o----9-----------------------------------o|
|o-6--9--9--5-5-5-5-5--4--2-2-2--4--2-2-2-o|  x3
|--6--7--9--5-5-5-5-5--4--2-2-2--4--2-2-2--|
|--6-----9--5-5-5-5-5--4--2-2-2--4--2-2-2--|

|-----------------------------------------------------------|
|-----------------------------------------------------------|
|----9---------------------------------------------------5--|
|--6-9-9-5-5-5-5-5-4-2-2------4-2-2------4-2-4-2-4-2-4-2-5--|
|--6-7-9-5-5-5-5-5-4-2-2-/14\-4-2-2-/14\-4-2-4-2-4-2-4-2-3--|
|--6---9-5-5-5-5-5-4-2-2------4-2-2------4-2-4-2-4-2-4-2----|

|---------------------------------------------------------------------|
|---------------------------------------------------------------------|
|o-4-4-4-4-4-4-4-4-4-4-4-4-------------------------------------------o|
|o-4-4-4-4-4-4-4-4-4-4-4-4-4-4-4-4-2-2-2-2-2-2-2-2-2-2-2-2-0-2-0-2-0-o| x4
|--2-2-2-2-2-2-2-2-2-2-2-2-4-4-4-4-2-2-2-2-2-2-2-2-2-2-2-2-0-2-0-2-0--|
|--------------------------4-4-4-4-2-2-2-2-2-2-2-2-2-2-2-2-0-2-0-2-0--|

One last thing before I quit
I never wanted anymore that I could fit into my head
I still remember every single word you said 
And all the shit that somehow came along with it
Still thereís one thing that comforts me
Since I was always caged and now Iím freeeeeeeeeeee!!!!!!!!

Pre-chorus   G.1 & G.2
|------------------------------|
|------------------------------|
|o----------------------------o|
|o-2-2--0--2-2--0--2--0--2--0-o|   x3
|--2-2--0--2-2--0--2--0--2--0--|
|--2-2--0--2-2--0--2--0--2--0--|

Chorus   G.1 & G.2
|--------|---------------------------------------------|
|--------|---------------------------------------------|
|--------|o-4-4-4-4---------------------------------5-o|
|--------|o-4-4-4-4--6-6-6-6--4--2-2-2--4--2--4--2--5-o|   x4
|--2/15--|--2-2-2-2--6-6-6-6--4--2-2-2--4--2--4--2--3--|
|--2/15--|-----------6-6-6-6--4--2-2-2--4--2--4--2-----|

Outro  
G.1  
|-----|--------------------------------------------------------------------|
|-----|--------------------------------------------------------------------|
|-----|o-11-11-9-9-8-8-6-6-9-9-8-8-6-6-4-4-6-6-4-4-1-1-4-4-6-6-4-4-6b-6-4-o|
|-----|o------------------------------------------------------------------o|
|-15\-|--------------------------------------------------------------------|
|-----|--------------------------------------------------------------------|
                                                                        x3
|----------------------------|
|----------------------------|
|--11-11-9-9-8-8-6-6-9-9-8b8-|
|----------------------------|
|----------------------------|
|----------------------------|
G.2	                                                                
|---------------------------------------------------------------------|
|---------------------------------------------------------------------|
|o-4-4-4-4-4-4-4-4-4-4-4-4-------------------------------------------o|
|o-4-4-4-4-4-4-4-4-4-4-4-4-4-4-4-4-2-2-2-2-2-2-2-2-2-2-2-2-0-2-0-2-0-o|   
|--2-2-2-2-2-2-2-2-2-2-2-2-4-4-4-4-2-2-2-2-2-2-2-2-2-2-2-2-0-2-0-2-0--|
|--------------------------4-4-4-4-2-2-2-2-2-2-2-2-2-2-2-2-0-2-0-2-0--|
                                                                 x3
|---------------------------|
|---------------------------|
|--4-4-4-4-4-4-4-4-4-4-4-4--|
|--4-4-4-4-4-4-4-4-4-4-4-4--|
|--2-2-2-2-2-2-2-2-2-2-2-2--|
|---------------------------|

G.1 & G.2                                                         
|------------------------------------------------------------||
|------------------------------------------------------------||
|------------------------------------------------------5--4--||
|--4--2-2--------4--2-2--------4--2--4--2--4--2--4--2--5--4--||
|--4--2-2--/14\--4--2-2--/14\--4--2--4--2--4--2--4--2--3--2--||
|--4--2-2--------4--2-2--------4--2--4--2--4--2--4--2--------||
Related for Monkey Wrench tab