Song name
# A B C D E F G H I J K L M N O P Q R S T U V W X Y Z

Foo Fighters - Weenie Beenie tab

WEENIE BEENIE: VOCALS, GUITAR and BASS TAB.
Artist    Foo Fighters
Album     Foo Fighters
Genre     Grunge
Year      1995

Tuning    Normal (EBGDAE)

This is a fast song. I figured this tab all by my own. Anyways,
here it is. The real tab. Listen to the music to get it right.
It would sound great if you have a DS turbo distortion box.

h   Hammer-on
p   Pull-off


Intro (Guitar 1)
E|-----------------------|----------------------|
B|-----------------------|----------------------|
G|-----------------------|--9-10-10-9-10-10-10h-|
D|-----------------------|----------------------|
A|--8--8--8--10-10-10----|----------------------|
E|--6--6--6---8--8--8----|----------------------|

E|-----------------------|----------------------|
B|-----------------------|----------------------|
G|-----------------------|--9-10-10-9-10-10-9---|
D|-----------------------|----------------------|
A|--8--8--8---10-10-10---|----------------------|
E|--6--6--6---8--8--8----|----------------------|

Intro (Guitar 2)
E|-----------------------|----------------------|
B|-----------------------|----------------------|
G|-----------------------|----------------------|
D|-----------------------|----------------------|
A|--10--10--10--10-10-10-|----------------------|
E|--8---8---8---8--8--8--|----------------------|


Chorus ("Tear it off...") (Both guitars)
E|----------------------------------------------|
B|----------------------------------------------|
G|----------------------------------------------|
D|----------------------------------------------|
A|--10--10--10--8--8-8-8-8-8-8-8-8-8-8-8--------|
E|--8---8---8---6--6-6-6-6-6-6-6-6-6-6-6--------| (Repeat x2)

Verse (Guitar 1)
E|-----------------------|----------------------|
B|-----------------------|----------------------|
G|-----------------------|--9-10-10-9-10-10-10h-|
D|-----------------------|----------------------|
A|--8--8--8--10-10-10----|----------------------|
E|--6--6--6---8--8--8----|----------------------|

E|-----------------------|----------------------|
B|-----------------------|----------------------|
G|-----------------------|--9-10-10-9-10-10-9---|
D|-----------------------|----------------------|
A|--8--8--8---10-10-10---|----------------------|
E|--6--6--6---8--8--8----|----------------------|

Verse (Guitar 2)
E|-----------------------|----------------------|
B|-----------------------|----------------------|
G|-----------------------|----------------------|
D|-----------------------|----------------------|
A|--10--10--10--10-10-10-|----------------------|
E|--8---8---8---8--8--8--|----------------------|

Breakdown (This is quite complicated, so it would not be that accurate.)
(Guitar 1) (Listen to the song to get it right.)
E|-----------------------|----------------------|
B|-----------------------|----------------------|
G|-----------------------|----------------------|
D|-------3---------------|-------4--------------|
A|-------3---------------|-------4--------------|
E|-0-1-2-3-2-1-0---------|-0-1-2-4-2-1-0--------| (Repeat x4)
 |PM                                            |
 |----------------------------------------------|

Breakdown (Guitar 2)
E|-----------------------|----------------------|
B|-----------------------|----------------------|
G|-----------------------|----------------------|
D|-----------------------|----------------------|
A|-----------------------|----------------------|
E|-0-1-2-3-2-1-0---------|-0-1-2-4-2-1-0--------| (Repeat x4)

Verse (Guitar 1)
E|-----------------------|----------------------|
B|-----------------------|----------------------|
G|-----------------------|--9-10-10-9-10-10-10h-|
D|-----------------------|----------------------|
A|--8--8--8--10-10-10----|----------------------|
E|--6--6--6---8--8--8----|----------------------|

E|-----------------------|----------------------|
B|-----------------------|----------------------|
G|-----------------------|--9-10-10-9-10-10-9---|
D|-----------------------|----------------------|
A|--8--8--8---10-10-10---|----------------------|
E|--6--6--6---8--8--8----|----------------------|

Verse (Guitar 2)
E|-----------------------|----------------------|
B|-----------------------|----------------------|
G|-----------------------|----------------------|
D|-----------------------|----------------------|
A|--10--10--10--10-10-10-|----------------------|
E|--8---8---8---8--8--8--|----------------------|

Chrous (Both)

E|----------------------------------------------|
B|----------------------------------------------|
G|----------------------------------------------|
D|----------------------------------------------|
A|--10--10--10--8--8-8-8-8-8-8-8-8-8-8-8--------|
E|--8---8---8---6--6-6-6-6-6-6-6-6-6-6-6--------|

Verse (Guitar 1)
E|-----------------------|----------------------|
B|-----------------------|----------------------|
G|-----------------------|--9-10-10-9-10-10-10h-|
D|-----------------------|----------------------|
A|--8--8--8--10-10-10----|----------------------|
E|--6--6--6---8--8--8----|----------------------|

E|-----------------------|----------------------|
B|-----------------------|----------------------|
G|-----------------------|--9-10-10-9-10-10-9---|
D|-----------------------|----------------------|
A|--8--8--8---10-10-10---|----------------------|
E|--6--6--6---8--8--8----|----------------------|

Verse (Guitar 2)
E|-----------------------|----------------------|
B|-----------------------|----------------------|
G|-----------------------|----------------------|
D|-----------------------|----------------------|
A|--10--10--10--10-10-10-|----------------------|
E|--8---8---8---8--8--8--|----------------------|

Chrous (Both)

E|----------------------------------------------|
B|----------------------------------------------|
G|----------------------------------------------|
D|----------------------------------------------|
A|--10--10--10--8--8-8-8-8-8-8-8-8-8-8-8--------|
E|--8---8---8---6--6-6-6-6-6-6-6-6-6-6-6--------|

Breakdown (Guitar 1)
E|-----------------------|----------------------|
B|-----------------------|----------------------|
G|-----------------------|----------------------|
D|-------3---------------|-------4--------------|
A|-------3---------------|-------4--------------|
E|-0-1-2-3-2-1-0---------|-0-1-2-4-2-1-0--------|
 |PM                                            |
 |----------------------------------------------|

Breakdown (Guitar 2)
E|-----------------------|----------------------|
B|-----------------------|----------------------|
G|-----------------------|----------------------|
D|-----------------------|----------------------|
A|-----------------------|----------------------|
E|-0-1-2-3-2-1-0---------|-0-1-2-4-2-1-0--------| (Repeat x4)

The breakdown repeats it for another 4 and guitar 1 does not mute.

Verse (Guitar 1)
E|-----------------------|----------------------|
B|-----------------------|----------------------|
G|-----------------------|--9-10-10-9-10-10-10h-|
D|-----------------------|----------------------|
A|--8--8--8--10-10-10----|----------------------|
E|--6--6--6---8--8--8----|----------------------|

E|-----------------------|----------------------|
B|-----------------------|----------------------|
G|-----------------------|--9-10-10-9-10-10-9---|
D|-----------------------|----------------------|
A|--8--8--8---10-10-10---|----------------------|
E|--6--6--6---8--8--8----|----------------------| (Repeat x2)

Verse (Guitar 2)
E|-----------------------|----------------------|
B|-----------------------|----------------------|
G|-----------------------|----------------------|
D|-----------------------|----------------------|
A|--10--10--10--10-10-10-|----------------------|
E|--8---8---8---8--8--8--|----------------------| (Repeat x2)


Chrous (Both)

E|----------------------------------------------|
B|----------------------------------------------|
G|----------------------------------------------|
D|----------------------------------------------|
A|--10--10--10--8--8-8-8-8-8-8-8-8-8-8-8--------|
E|--8---8---8---6--6-6-6-6-6-6-6-6-6-6-6--------|

Outro (Guitar 1) "One shot, nothing..."
E|-----------------------|----------------------|
B|-----------------------|----------------------|
G|-----------------------|----------------------|
D|-------3---------------|-------4--------------|
A|-------3---------------|-------4--------------|
E|-0-1-2-3-2-1-0---------|-0-1-2-4-2-1-0--------| (Repeat x4)

Outro (Guitar 2) "One shot, nothing..."
E|-----------------------|----------------------|
B|-----------------------|----------------------|
G|-----------------------|----------------------|
D|-----------------------|----------------------|
A|-----------------------|----------------------|
E|-0-1-2-3-2-1-0---------|-0-1-2-4-2-1-0--------| (Repeat x4)

Outro
E|-----------------------|
B|-----------------------|
G|-----------------------|
D|-----------------------|
A|-8-8-8--10-10-10-------|
E|-6-6-6--8--8--8--------|

That's the end of the guitar tab.
The bass tab is very simple. The bass has no breakdown part but the bit where it gets 
around about 1:51, but follow the outro.

Intro/Verse
G|-----------------------|
D|-----------------------|
A|-1-1-1-3--3-3----------|
E|-----------------------|

Chorus
G|-----------------------|
D|-----------------------|
A|-1-1-1-----------------|
E|-------4-4-4-4-4-4-----|

Outro
G|---------------|---------------|
D|---------------|---------------|
A|---------------|---------------|
E|-0-1-2-3-2-1-0-|-0-1-2-4-2-1-0-|

Lyrics/Position

[Intro]

[Verse]
I'm molasses
Hung in rent.
Read a sponser
One shot, no post show.

[Chorus]
Tear it off
But not alot.
It's not enough to debate.

[Verse]
And as you blame
Real, stagnate (x2)
Big shit, no shit.

[Chorus]
Tear it off
But not alot.
Only so much you can take.

[Breakdown]

[Verse]
Some try to hit
Beast and mud lead (x2)
Big shit, no shit.

[Chorus]
Tear it off
But not alot
Only so much you can take.

[Verse]
And as you blame
Real, stagnate (x2)
Big shit, no duh!

[Chorus]
Tear it off
But not alot
It's not enough to debate.

[Breakdown]
(Oooo..!) Right!

[Verse]
I'm molasses
Hung in rent.
Read a sponser
One shot, no post show.

[Chorus]
Tear it off
But not alot.
Only so much you can take.

[Outro]
One shot, nothing!

Any request or feedback, leave a comment!
Tap to rate this tab
# A B C D E F G H I J K L M N O P Q R S T U V W X Y Z