Song name
# A B C D E F G H I J K L M N O P Q R S T U V W X Y Z

Foo Fighters - My Hero Acoustic tab

Highlighted       Show chord diagrams
Foo Fighters - My Hero (acoustic)
(Normal Tuning)

As performed acoustic on Craig Kilborn with Nate.


Intro
     E     C#               E     C#
e||--0-0-0-4-4-4-4-4-4-4--|-0-0-0-4-4-4-4-4-4-4-4--||
B||--0-0-0-4-4-4-4-4-4-4--|-0-0-0-4-4-7-4-4-4-7-5--||
G||--1-1-1-4-4-4-4-4-4-4--|-1-1-1-4-4-4-4-4-4-4-4--||
D||--2-2-2-6-6-6-6-6-6-6--|-2-2-2-6-6-6-6-6-6-6-6--||
A||--2-2-2-4-4-4-4-4-4-4--|-2-2-2-4-4-4-4-4-4-4-4--||
E||--0-0-0----------------|-0-0-0------------------||

     F#         A5
e||--0-0-0-0-0--0--||
B||--0-0-0-0-0--0--||
G||--3-3-3-3-3--2--||
D||--4-4-4-4-4--2--||
A||--4-4-4-4-4--0--||
E||--2-2-2-2-2-----||


Verses
     E     C#
e||--0-0-0-4-4-4-4-4-4-4-4-4--||
B||--0-0-0-4-4-4-4-4-4-4-4-4--||
G||--1-1-1-4-4-4-4-4-4-4-4-4--||
D||--2-2-2-6-6-6-6-6-6-6-6-6--||
A||--2-2-2-4-4-4-4-4-4-4-4-4--||
E||--0-0-0--------------------||


Chorus
e||----------------------------------------|----------------------------------------|
B||----------------------------------------|----------------------------------------|
G||--2-2-2-2---2-2-2-2---2-2-2-2---2-2-2-2-|--2-2-2-2---2-2-2-2---2-2-2-2---2-2-2-2-|
D||--2-2-2-2---1-1-1-1---2-2-2-2---4-4-4-4-|--2-2-2-2---1-1-1-1---2-2-2-2---4-4-4-4-|
A||--0-0-0-0---0-0-0-0---0-0-0-0---0-0-0-0-|--0-0-0-0---0-0-0-0---0-0-0-0---0-0-0-0-|
E||----------------------------------------|----------------------------------------|

   E
e|-0-0-0-0-0-0-0-0-0-0-0-0-0-0-0-0-0-0-0-0--||
B|-0-0-0-0-0-0-0-0-0-0-0-0-0-0-0-0-0-0-0-0--||
G|-1-1-1-1-1-1-1-1-1-1-1-1-1-1-1-1-1-1-1-1--|| (2x)
D|-2-2-2-2-2-2-2-2-2-2-2-2-2-2-2-2-2-2-2-2--||
A|-2-2-2-2-2-2-2-2-2-2-2-2-2-2-2-2-2-2-2-2--||
E|-0-0-0-0-0-0-0-0-0-0-0-0-0-0-0-0-0-0-0-0--||


Interlude
     E     C#
e||--0-0-0-4-4-4-4-4-4-4-4-4--||
B||--0-0-0-4-4-4-4-4-4-4-4-4--||
G||--1-1-1-4-4-4-4-4-4-4-4-4--||
D||--2-2-2-6-6-6-6-6-6-6-6-6--||
A||--2-2-2-4-4-4-4-4-4-4-4-4--||
E||--0-0-0--------------------||

e||-----------------|-----||
B||--9-9-9-9-9-9-9--|-9b--||
G||--9-9-9-9-9-9-8--|-9b--|| (repeat first part couple times then bend it all)
D||-----------------|-----||
A||-----------------|-----||
E||-----------------|-----||


_____________________
http://www.fftabs.com
Tap to rate this tab
# A B C D E F G H I J K L M N O P Q R S T U V W X Y Z