Song name
# A B C D E F G H I J K L M N O P Q R S T U V W X Y Z

Foo Fighters - Baker Street tab

Help us improve GuitareTab! Take a short survey!
Chords used:

   EADGBe

Dm xx0231  or Dm7 : xx0211
Am x02210  or Am7 : x02010
Em 022000
G  355xxx
A  577xxx
C  x355xxx
D  x577xx

Key:
10b   - Bend note
13h   - Hammer-on
12p   - Pull-off
13/10 - Slide to next note
10~~~ - Hold note
(7)   - Ghost note, don't necessarily play it
(x12) - Play 12 times
Intro:

e-|-------------------------|
B-|-------------------------|
G-|-4b-4b-2-0---3-0---------|
D-|-----------3-----1-3-0-0-|
A-|-------------------------|
E-|-------------------------|

e-|-----------------|
B-|-----------------|
G-|-----------------|
D-|---9-------8---5-|
A-|-7---(7)-6---3---|
E-|-----------------|

e-|-----------------------|
B-|-----------------------|
G-|-4b-4b-2-0---3-0-------|
D-|-----------3-----1-3-0-|
A-|-----------------------|
E-|-----------------------|

Solo 1:
(with power chords - should be strummed by guitar 2 during solo)

                  D
e-|----13-12-10---10h12p10-|
B-|-10---------13h---------|
G-|------------------------|
D-|------------------------|
A-|------------------------|
E-|------------------------|
                  D
e-|----13-12-10------------|
B-|-10---------13h-10------|
G-|------------------------|
D-|------------------------|
A-|------------------------|
E-|------------------------|


                C       A
e-|----13-12-10------------|
B-|-10---------13h-13-10---|
G-|------------------------|
D-|------------------------|
A-|------------------------|
E-|------------------------|

                  G
e-|----13-12-10---10h12p10------|
B-|-10---------13h----------8-6-|
G-|-----------------------------|
D-|-----------------------------|
A-|-----------------------------|
E-|-----------------------------|


A
Winding your way down on Baker Street
A
Light in your head, and dead on your feet
     Em                     G
Well another crazy day, you drink the night away
    D
And forget about everything

A
This city's dance makes you feel so cold, it's got
A
So many people but its got no soul
        Em                   G
And its taken you so long to find out you were wrong
         D
When you thought it held everything.

Dm                            Am
You used to think that it was so easy
Dm                          Am
You used to say that it was so easy
    C              G             D
But you're trying, you're trying now
Dm                          Am
Another year and then you'd be happy
Dm                                Am
Just one more year and then you'd be happy
    C              G             A    G
But you're crying, you're crying now

-----Repeat Solo-----
                  D
e-|----13-12-10---10h12p10-|
B-|-10---------13h---------|
G-|------------------------|
D-|------------------------|
A-|------------------------|
E-|------------------------|
                  D
e-|----13-12-10------------|
B-|-10---------13h-10------|
G-|------------------------|
D-|------------------------|
A-|------------------------|
E-|------------------------|


                C       A
e-|----13-12-10------------|
B-|-10---------13h-13-10---|
G-|------------------------|
D-|------------------------|
A-|------------------------|
E-|------------------------|

                  G
e-|----13-12-10---10h12p10------|
B-|-10---------13h----------8-6-|
G-|-----------------------------|
D-|-----------------------------|
A-|-----------------------------|
E-|-----------------------------|

A
Way down the street there's a light in his place
A
You open the door, he's got that look on his face
       Em                               G
And he asks you where you've been, you tell him who you've seen
        D
And you talk about everything

A
He's got this dream about buying some land
A
He's gonna give up the crack and the one night stands
    Em                             G
And then he'll settle down, it's a quiet little town
    D
And forget about everything

Dm                        Am
But you know he'll always keep moving
Dm                        Am
You know he's never gonna stop moving
C                   G                D
Cause he's rolling, he's the rolling stone
Dm                          Am
And when you wake up it's a new morning
Dm                        Am
The sun is shining it's a new morning
C                 G            A     D
And you're going, you're going home

-----Repeat Intro-----

e-|-------------------------|
B-|-------------------------|
G-|-4b-4b-2-0---3-0---------|
D-|-----------3-----1-3-0-0-|
A-|-------------------------|
E-|-------------------------|

e-|-----------------|
B-|-----------------|
G-|-----------------|
D-|---9-------8---5-|
A-|-7---(7)-6---3---|
E-|-----------------|


e-|-----------------------|
B-|-----------------------|
G-|-4b-4b-2-0---3-0-------|
D-|-----------3-----1-3-0-|
A-|-----------------------|
E-|-----------------------|

-----Repeat Solo-----

                  D
e-|----13-12-10---10h12p10-|
B-|-10---------13h---------|
G-|------------------------|
D-|------------------------|
A-|------------------------|
E-|------------------------|
                  D
e-|----13-12-10------------|
B-|-10---------13h-10------|
G-|------------------------|
D-|------------------------|
A-|------------------------|
E-|------------------------|

                C       A
e-|----13-12-10------------|
B-|-10---------13h-13-10---|
G-|------------------------|
D-|------------------------|
A-|------------------------|
E-|------------------------|

                  G
e-|----13-12-10---10h12p10------|
B-|-10---------13h----------8-6-|
G-|-----------------------------|
D-|-----------------------------|
A-|-----------------------------|
E-|-----------------------------|


Final Solo:
(Solo 1's chords strummed whilst playing this)

e-|-20-20-20-20\22-17-17-15-13-17b-15-13\10--|
B-|------------------------------------------|
G-|------------------------------------------|
D-|------------------------------------------|
A-|------------------------------------------|
E-|------------------------------------------|

                        |  (x10)
e-|-10b~~~~~~~-13-15-17-|--17b-|
B-|---------------------|------|
G-|---------------------|------|
D-|---------------------|------|
A-|---------------------|------|
E-|---------------------|------|

e-|-20-20-20-20\22-10b-10-8-----------------------|
B-|-------------------------10-8--10-8------------|
G-|------------------------------------10-7-------|
D-|-----------------------------------------10\12-|
A-|-----------------------------------------------|
E-|-----------------------------------------------|

          (x12)
e-|-17-|--17--|b
B-|----|------|
G-|----|------|
D-|----|------|
A-|----|------|
E-|----|------|
Related for Baker Street tab