Song name
# A B C D E F G H I J K L M N O P Q R S T U V W X Y Z

Foo Fighters - Gimme Stitches tab

Gimme Stitches->Foo Fighters
From the album, There is Nothing Left to Lose

Intro:
Gtr.1 Slight Dist.    Gtr. 2 Clean
e--------------       e-------------|
b--------------       b-10-8-10-8---|x2
g--------------       g---9----9----|
d--------------       d-------------|
a-/4-----------x4     a-------------|
e----5-5-5-5---       e-------------|

Verse:
Gtr.1 plays intro

Chorus:
Gtr.1 Dist.
  A5                    D5                 F5                        G5
e-------------------------------------------------------------------------|
b-------------------------------------------------------------------------|
g------------------------7------------------------------------------------|
d-7----------------------7-----------------3--------------------------5---|
a-7----------------------5-----------------3--------------------------5---|
e-5----------------------------------------1--------------------------3---|
"dress me up in stitches its now or never, tired of wearing black and blue
 dress me up in stitches its now or never, dying to get my blood on you"

Gtr.2 Dist.
a-----7-9b--|
e-7-9-------|

Bridge:
Gtr.1 Dist
  A5          G#/A5           G5             F#/G5          F5           G5
e---------------------------------------------------------------------------|
b---------------------------------------------------------------------------|
g---------------------------------------------------------------------------|
d-7-------------7--------------5---------------5-------------3------------5-|
a-7-------------7--------------5---------------5-------------3------------5-|
e-5-------------4--------------3---------------2-------------1------------3-|
"how can you go on..."

Repeat verse, chorus, and interlude
Tap to rate this tab
 
# A B C D E F G H I J K L M N O P Q R S T U V W X Y Z