Song name
# A B C D E F G H I J K L M N O P Q R S T U V W X Y Z

Foo Fighters - Come Back tab

Band:	Foo Fighters
Song:	Come Back (Live)
Tabber:	Ruairi Coleman

Ok i no this tab looks messy and nothing like the way its played on the CD
but this is the way they played it live. The Live version can be downloaded from 
www.sweetparamania.com it class i you should download it. I think its pretty close
but see how you go with it. Enjoy and Please Rate :)

 Intro Guitar 1
 e|-----------------------------------------------------------|
 B|-----------------------------------------------------------|
 G|-----------------------------------------------------------|
 D|---11-11---------14-14---------10-10-10-10-10-/-12-12-12---|
 A|---11-11---------14-14---------10-10-10-10-10-/-12-12-12---|
 E|---9--9----------12-12---------8--8--8--8--8--/-10-10-10---|
  |
  |Guitar 2
 e|-------------------------------------------------------------|
 B|-------------------------------------------------------------|
 G|--------9-9b11r9------9-9b11r9----9-11-9-11b 11b 11b-9-11----|
 D|-------------------------------------------------------------|
 A|-------------------------------------------------------------|
 E|-------------------------------------------------------------|

  Guitar 1
 e|-----------------------------------------------------------|
 B|-----------------------------------------------------------|
 G|-----------------------------------------------------------|
 D|---11-11-11-11-11/14-14-14-14-14-14-14-14-14-14\11-11-11---|
 A|---11-11-11-11-11/14-14-14-14-14-12-12-12-12-12\9--9--9----|
 E|---9--9--9--9--9-/12-12-12-12-12---------------------------|
  |
  |Guitar 2
 e|-------------------------------------------------------------|
 B|-------------------------------------------------------------|
 G|--------9-9b11r9------9-9b11r9----9-9b11br9---6---8-8-8------|
 D|-------------------------------------------------------------|
 A|-------------------------------------------------------------|
 E|-------------------------------------------------------------|
  Guitar 1
 e|-----------------------------------------------------------|
 B|-----------------------------------------------------------|
 G|-----------------------------------------------------------|
 D|---11-11-11-11-11/14-14-14-14-14-10-10-10-10-10/12-12-12---|
 A|---11-11-11-11-11/14-14-14-14-14-10-10-10-10-10/12-12-12---|
 E|---9--9--9--9--9-/12-12-12-12-12-8--8--8--8--8-/10-10-10---|
  |
  |Guitar 2
 e|-------------------------------------------------------------|
 B|-------------------------------------------------------------|
 G|--------9-9b11r9------9-9b11r9----9-11-9-11b 11b 11b-9-11----|
 D|-------------------------------------------------------------|
 A|-------------------------------------------------------------|
 E|-------------------------------------------------------------|

  Guitar 1
 e|-----------------------------------------------------------|
 B|-----------------------------------------------------------|
 G|-----------------------------------------------------------|
 D|---11-11-11-11-11/14-14-14-14-14-14-14-14-14-14\11-11-11---|
 A|---11-11-11-11-11/14-14-14-14-14-12-12-12-12-12\9--9--9----|
 E|---9--9--9--9--9-/12-12-12-12-12---------------------------|
  |
  |Guitar 2
 e|-------------------------------------------------------------|
 B|-------------------------------------------------------------|
 G|--------9-9b11r9------9-9b11r9----9-9b11br9---6---8-8-8------|
 D|-------------------------------------------------------------|
 A|-------------------------------------------------------------|
 E|-------------------------------------------------------------|


  Verus x4 Guitar 1
 e|----------------------------------------------------------------------------|
 B|----------------------------------------------------------------------------|
 G|----------------------------------------------------------------------------|
 D|---11-11-------------------14-14-------------------10-10--------------------|
 A|---11-11-<11><11><11><11>--14-14-<14><14><14><14>--10-10-<10><10><10><10>---|
 E|---9--9--<9>-<9>-<9>-<9>---12-12-<12><12><12><12>--8--8--<8>-<8>-<8>-<8>----|

 e|-----------------------------------------------------------|
 B|-----------------------------------------------------------|
 G|-----------------------------------------------------------|
 D|---12-12-------------------7-7---------------7-7-7/9-9-9---|
 A|---12-12-<12><12><12><12>--7-7-<7><7><7><7>--7-7-7/9-9-9---|
 E|---10-10-<10><10><10><10>--5-5-<5><5><5><5>--5-5-5/7-7-7---| x4


  Pre Chorus x2 Guitar 1
 e|------------------------------|--------|-------------------------------|
 B|------------------------------|--------|-------------------------------|
 G|------------------------------|-Slight-|-------------------------------|
 D|------------------------------|-Pause--|-------------------------------|
 A|---11--11--11--11--11--9--7---|--------|---9--9--9--9--9---11-7--------|
 E|---9---9---9---0---0---0--0---|--------|---7--7--7--7--7--------11-9---| x2

  Chorus Guitar 1
 e|-----------------------------------------------------------------------------|
 B|-----------------------------------------------------------------------------|
 G|-----------------------------------------------------------2-2-2-2-2-4-4-4---|
 D|---11-11-11-11-11-7-7-7--4-4-4-4-4-6-6-6--2-2-2-2-2-4-4-4--2-2-2-2-2-4-4-4---|
 A|---11-11-11-11-11-7-7-7--4-4-4-4-4-6-6-6--2-2-2-2-2-4-4-4--0-0-0-0-0-2-2-2---|
 E|---9--9--9--9--9--5-5-5--2-2-2-2-2-4-4-4--0-0-0-0-0-2-2-2--------------------| x2

 Pre Verus thingy Gutiar 1
 e|-------------------------------------------------------------------------------------------------|
 B|-------------------------------------------------------------------------------------------------|
 G|-------------------------------------------------------------------------------------------------|
 D|---11-11-11-11-11-11-14-14-14-14-14-14-10-10-10-10-10-10-12-12-12-12-12-12-7-7-7-7-7-7-7/9-9-9---|
 A|---11-11-11-11-11-11-14-14-14-14-14-14-10-10-10-10-10-10-12-12-12-12-12-12-7-7-7-7-7-7-7/9-9-9---|
 E|---9--9--9--9--9--9--12-12-12-12-12-12-8--8--8--8--8--8--10-10-10-10-10-10-5-5-5-5-5-5-5/7-7-7---| x2
  |
  |Guitar 2
 e|-----------------------------------------------------------------------------|
 B|-----------------------------------------------------------------------------|
 G|--------9-9b11r9------9-9b11r9---------------9--11--9---11b-11b-11b-9-11-8---|
 D|-----------------------------------------------------------------------------|
 A|-----------------------------------------------------------------------------|
 E|-----------------------------------------------------------------------------|


Repeat Verus x2
________________________

Repeat Pre Chorus x2
________________________

Repeat Chours x2
________________________

  Bridge
 e|----------------------------|---------------------------------|
 B|----------------------------|---------------------------------|
 G|---13--11\10--8\6--8----6---|---13--11\9--------------6---8---|
 D|----x---x-x---x-x--x-6--x---|----x---x-x-11\9--11\14--6-6-8---|
 A|---11---9\8---6\4--6-x--4---|---11---9\7--x-x---x--x--4-6-6---|
 E|---------------------4------|-------------9\7---9\12----4-----| x2
 
  Bridge Guitar 2 (This was to x2 over the two sections of the bridge above)
 e|-------------------------|
 B|-------------------------|
 G|-------------------------|
 D|---11------8-----9-------|
 A|---11-x16--8-x1--9-x16---|
 E|---9-------6-----7-------| x2

Repeat Pre Chorus x2
__________________

  Quiet Chorus Guitar 1
 e|---4------------------------------------------------------|
 B|---5---0-0-0-------0-0------------------------------4-4---|
 G|---6---2-2-2---3---2-1--------------3-3-------------4-4---|
 D|---6---2-2-2---4---2-2--------------4-4--2-2-2-2-2--4-4---|
 A|---------------4---------2-2-2-2-2--4-4--0-0-0-0-0--2-2---|
 E|---------------2---------0-0-0-0-0--2-2-------------------| x2
  |
  |Guitar 2
 e|----------------------------------------------------------|
 B|----------------------------------------------------------|
 G|---6~~~-----6-5~~--------6--6--6\5\3~~---6--6-6-6/8-8-8---|
 D|---x--------x-x----------x--x--x-x-x-----x--x-x-x-x-x-x---|
 A|---4~~~-----4-3~~--------4--4--4\3\1~~---4--4-4-4/6-6-6---|
 E|----------------------------------------------------------| x2

Repeat Chorus x4
__________________

  Outro Guitar 1
 e|---------------------------------------------------------------------------|
 B|---------------------------------------------------------------------------|
 G|---------------------------------------------------------------------------|
 D|---11-11---------14-14---------10-10-10-10-10/12-12-12---7~~~-9~~~-11~~~---|
 A|---11-11---------14-14---------10-10-10-10-10/12-12-12---7~~~-9~~~-11~~~---|
 E|---9--9----------12-12---------8--8--8--8--8-/10-10-10---5~~~-7~~~-9-~~~---|
  |
  |Guitar 2
 e|-------------------------------------------------------------|
 B|-------------------------------------------------------------|
 G|--------9-9b11r9------9-9b11r9-----9-11-9-11b 11b 11b--------|
 D|-----------------------------------------------------11~~~---|
 A|-------------------------------------------------------------|
 E|-------------------------------------------------------------|

Don't forget download it from www.sweetparamania.com
Also ive used the Bridge from Tom Kelly Come Back tab A.K.A "tuhu27".
Tap to rate this tab
# A B C D E F G H I J K L M N O P Q R S T U V W X Y Z