Song name
# A B C D E F G H I J K L M N O P Q R S T U V W X Y Z

Fools Garden - Yellow Lemon Tree tab

Guitar Tab Intro Yellow Lemon Tree - Foolsgarden

e------------------------------------------|
B------------------------------------------|
G------------------------------------------|
D-----6-----6---------------------6-----6--|
A--8-----8--------10-----10\8--8-----8-----|
E--------------8------8--------------------|

       Cm             Bb           Cm
e---------------------------------------------|
B---------------------------------------------|
G---------------------------------------------|
D---------------------------------------------|
A-----10-------------8-----8-----10-----10\8--|
E--8------8--8\6--6-----6-----8------8--------|

    Fm   Cm     Fm
e-------------------|
B---------------9---|
G---------------10--|
D-----6---------10--|
A--8--------10--8---|
E--------8----------|

Tap to rate this tab
# A B C D E F G H I J K L M N O P Q R S T U V W X Y Z