Guitaretab - guitar tabs
Song name
# A B C D E F G H I J K L M N O P Q R S T U V W X Y Z

Foreign Objects - Far Cry Behind tab

Artist: Foreign Objects
Album: The Undiscovered Numbers and Colors
Title: Far Cry Behind 

Tabbed By: Spencer Reilly

Tuning: E A D G B E

Most of the passages do not show exact timing, so you will have to figure it out
yourself. So you know at the bottom on some of the charts are the fingerings easiest
for the particular passage( index is 1, pinky is 4, and - means no finger

Legend:
Slide up - /
Slide down - \
Hammer On - H
Pull off - P
Vibrato - v~
Bend - B
Bend + Release - BR


Intro: C5 PM with HEAVY DRUMS, then this
GTR Acoustic
|--------------------------------------------------------------|
|--------------------------------------------------------------|
|--------------------------------------------------------------|
|--------------------------------------------------------------|
|-7-3-5-2-5-3-0-3--7-3-5-2-5-3-0-------------------------------|
|--------------------------------------------------------------|
  4 1 3 1 3 1 - 1  4 1 3 1 3 1 0

GTR DIST ELEC.
|--------------------------------------------------------------|
|--------------------------------------------------------------|
|--------------------------------------------------------------|
|--------------------------------------------------------------|
|-/5-2-3-0-3-0--/7-3-5-2-5-3-0-3-------------------------------|
|--------------------------------------------------------------|
   4 1 2 - 2 -   4 1 3 1 3 1 - 1

|--------------------------------------------------------------|
|--------------------------------------------------------------|
|--------------------------------------------------------------|
|---------------7-------------2--------------5-----------------|
|---------7---7---7-------------5------/7------7p5--5--7--5-7v~|
|-5---8-----5-------7-3-3-7-3----------------------------------|
  1   4   3 1 3 4 3 4 1 1 4 1 1 4         3  1 3p1  1  3  1 3 






[ Tab from: http://www.guitaretab.com/f/foreign-objects/140566.html ]
|--------------------------------------------------------------|
|--------------------------------------------------------------|
|--------------------------------------------------------------|
|-----------7----7--------5-7-7/9\7-5--------------------------|
|-7-10-7-10---10---7----7--------------7-----------------------|
|--------------------------------------------------------------|
  1 4  1 4  1  4 1 1    3 1 3 3/3\3 1 3 3 




E5 then
|--------------------------------------------------------------|
|--------------------------------------------------------------|
|--------------------------------------------------------------|
|-----5h7------------------------------------------------------|
|-7-------5---------------5v~----------------------------------|
|---7---------7-6-5-3-5-7--------------------------------------|

These are the main riffs, you can figure out where they go, they are in order from start, but it repeats


I slowed down the solo and got all the notes right...o here yea go

SOLO

|15-14-------15-17-17BR-15-------------------------------------|
|------15/17---------------17-17BR-15--------------------------|
|-------------------------------------16-14-12-14v~------------|
|--------------------------------------------------------------|
|--------------------------------------------------------------|
|--------------------------------------------------------------|


|--------------------------------------------------------------|
|-------------------12/13--------------------------------------|
|-12-14-16-14-12--------------------12-12/14\12----14-14/16\14-|
|----------------14-------14v~---14-------------12-------------|
|--------------------------------------------------------------|
|--------------------------------------------------------------|




|--------------------------------------------------------------|
|-------------------------12-----------------------------------|
|----16-16/17\16-14-12-14----14p12-12/14\12-----14-12-12h14p12-|
|-14----------------------------------------12-----------------|
|--------------------------------------------------------------|
|--------------------------------------------------------------|





|-----------------17-15\---------------------------------------|
|----12-13-15-/17----------------------------------------------|
|--------------------------------------------------------------|
|-14-----------------------------------------------------------|
|--------------------------------------------------------------|
|------------------------------------------------------
Related for Far Cry Behind tab