Song name
# A B C D E F G H I J K L M N O P Q R S T U V W X Y Z

Forever Never - Saviour tab

Forever Never - Saviour?
Tabbed by Breadtruck
Tuning is Drop A (can be played on a 6 string, but I play a 7)

This tab was a little rushed, and therefore things like the individual palm mutes 
during the breakdown are not tabbed 

out. It's easy to figure out if you listen to the song and memorise it. A few 
things may not be right but it sounds 

fine to me. This tab is merely a skeleton so feel free to add your own flair.

   
Intro / Verse
e|--------------------------------------|
b|--------------------------------------|
G|--------------------------------------|
D|--------------------------------------|
A|----5p3-----7p5----5p3-----8p7-7p5-5p3|
E|--------5p3------------5p3------------| 
A|-00----0---0----00----0---0---0---0---|
   ..    .   .    ..    .   .   .   .

e|-------------------------------------------|
b|-------------------------------------------|
G|-------------------------------------------|
D|-------------------------------------------|
A|----5p3-----7p5----5p3-----8p7-7p5-5p3-----|
E|--------5p3------------5p3-------------5p3-| 
A|-00----0---0----00----0---0---0---0---0----|
   ..    .   .    ..    .   .   .   .   .

During the verse, play the above riff but add this at the end:

e|---------|   e|---------------------------|
b|---------|   b|---------------------------|
G|---------|   G|---------------------------|
D|---------|   D|---------------------------|
A|---------|   A|---------------------------|
E|---------|   E|---------------------------| 
A|-1-4-3-1-|   A|-1-4-3-1~-1-4-3-1~-1/4-0-0-|  

   1st time          2nd time


Chorus (strumming not shown)
e|------------------------|
b|------------------------|
G|--7/9----/12---/7---/9--|
D|--x/x----/x-----x----x--|
A|--5/7----/10---/5---/7--|
E|------------------------| 
A|------------------------|


Repeat Verse

Repeat Chorus


Mini Breakdown
e|-----------------------|
b|-----------------------|
G|-----------------------|
D|-----------------------|
A|-------------5---------|
E|-----3h5-5h6--6--------|  x2
A|-0-00---0---0---333333-|
   . ..   .   .   ......


Next verse, just uses open string palm mutes until
e|-----------------|
b|-----------------|
G|-----------------|
D|-----------------|
A|-----------------|
E|-----------------| 
A|-1-4-3-1-3-6-3-1-|

then
e|--------------------------------|
b|--------------------------------|
G|--------------------------------|
D|--------------------------------|
A|----------------------------3p0-|
E|---55-66-6p5--55-66-6p5-6p5-----|  
A|-00--0--0---00--0--0---0---0----|
   ..  .  .   ..  .  .   .   .
e|---------------------------------------------------|
b|---------------------------------------------------|
G|---------------------------------------------------|
D|---------------------------------------------------|
A|-----------5--------6--5--4--3--2------------------|
E|---3h5-5h6--6---3h5--5--4--3--2--1-----------------| x2
A|-00---0---0---00------0--0--0--0--0-111111-4444444-|
   ..   .   .   ..      .  .  .  .  . 
e|---------------------------------|
b|---------------------------------|
G|---------------------------------|
D|---------------------------------|
A|--6--5--4--3--2------------------|
E|---5--4--3--2--1-----------------| x2
A|-0--0--0--0--0--0-111111-4444444-|
   .  .  .  .  .  . 
e|------------------------------------------------|
b|------------------------------------------------|
G|------------------------------------------------|
D|------------------------------------------------|
A|-6666------------6--5--4--3--2------------------|
E|-----5555---------5--4--3--2--1-----------------| 
A|----------6-3-0-0--0--0--0--0--0-111111-4444444-|
                  .  .  .  .  .  . 
e|---------------------------------|
b|---------------------------------|
G|---------------------------------|
D|---------------------------------|
A|--6--5--4--3--2------------------|
E|---5--4--3--2--1-----------------|
A|-0--0--0--0--0--0-111111-4444444-|
   .  .  .  .  .  . 
e|--------------------------------------|
b|--------------------------------------|
G|--------------------------------------|
D|--------------------------------------|
A|-6666-------------6666----------------|
E|-----5555-------------5555------------| x2
A|----------6-3-0-0----------6-3-0-0-0--|
                  
moar chugs with some A|--1111-4444-3333--| fills

e|--------------------------------|
b|--------------------------------|
G|--------------------------------|
D|----2~-----2~-----2~------------|
A|-0--0~--0--0~--0--0~------------|
E|-0--0~--0--0~--0--0~-------3*---|
A|-0--0~--0--0~--0--0~---/6-------|
   .      .      .

e|---------------------------------------------------|
b|---------------------------------------------------|
G|---------------------------5-5-5-5----7-7-7-5-5-5--|
D|-----5/7/8/7----5/7/8/7----x-x-x-x----x-x-x-x-x-x--|
A|-----x-x-x-x----x-x-x-x----3-3-3-3----5-5-5/3-3-3--| 
E|-----3/5/6/5----3/5/6/5----------------------------| x2
A|-000---------000--------333--------555-------------|
   ...         ...        ...        ...
 
Tap to rate this tab
 
# A B C D E F G H I J K L M N O P Q R S T U V W X Y Z