Song name
# A B C D E F G H I J K L M N O P Q R S T U V W X Y Z

Forever The Sickest Kids - Breakdown tab

Help us improve GuitareTab! Take a short survey!
I know what you're thinking, "Finally!"
I tabbed this out myself by ear.
Questions or Comments: johnnozzis@Live.com

Forever The Sickest Kids - Breakdown

Verse:

|-----------------|-----------------|-------------|
|-----------------|-----------------|-------------|
|-55-55-88-88---5-|-88----55----5---|-------------|
|-55-55-88-88-6-5-|-88-66-55-66-5-8-|-------------|
|-33-33-66-66-6-3-|-66-66-33-66-3-8-|-------------|
|-------------4---|----44----44---6-|-------------|

Chorus:

|-------------------------------------------------|
|-------------------------------------------------|
|-----5/333---------------------------------------|
|-666-5/333-----x4--------------------------------|
|-666-3/111---------------------------------------|
|-444---------------------------------------------|

Post Chorus: Clean

|-------------------------------------------------|
|-------------------------------------------------|
|---------5-----5---------------------------------|
|---6----5-5---5-5----8-----8-----6-----5-----8---|
|--6-6--3---3-3---3--8-8---8-8---6-6---5-5---8-8--|
|-4---4-------------6---6-6---6-4---4-3---3-6---6-|

Distortion:

|-------------------------------------------------|
|-------------------------------------------------|
|----------5/333/55-------------------------------|
|-666-666--5/333/55---x2--------------------------|
|-666-666--3/111/33-------------------------------|
|-444-444-----------------------------------------|

Verse2: 
 Dist.  |Clean                |Dist.
|-------|---------------------|-------------------|
|-------|---------------------|-------------------|
|-------|---------------------|------5555---------|
|-4-5-3-|---6----5----4----4--|-6666-5555-88888888|
|-4-5-3-|--6-6--5-5--4-4--4-4-|-6666-3333-88888888|
|-6-3-1-|-4----3----6----6----|-4444------66666666|
                             PM-.... .... ........
|-------------------------------------------------|
|-------------------------------------------------|
|------5555-33333333------------------------------|
|-6666-5555-33333333------------------------------|
|-6666-3333-11111111------------------------------|
|-4444--------------------------------------------|
PM.... .... ........

Chorus: Distortion

|-------------------------------------------------|
|-------------------------------------------------|
|-----5/333---------------------------------------|
|-666-5/333-----x4--------------------------------|
|-666-3/111---------------------------------------|
|-444---------------------------------------------|

|-------------------------------------------------|
|-------------------------------------------------|
|-------------------------------------------------|
|-6~~~--------------------------------------------|
|-6~~~--------------------------------------------|
|-4~~~--------------------------------------------|


Post Chorus: Distortion (x2 means play each section twice)

|-------------------------------------------------|
|------(x2)-(x2)----------------------------------|
|(x2)--5555-3333----------------------------------|
|-6666-5555-3333----------------------------------|
|-6666-3333-1111----------------------------------|
|-4444--------------------------------------------|


Solo/Breakdown:
The Solo I do I just scale down the 3rd 4th and 5th fret.

Outro & Ending Chorus: Distortion

|----------------|---------------------------------|
|----------------|---------------------------------|
|----------------|-2222-6-444444---------------2~~-|
|-3333333-4444444|-2222-6-444444-Repeat until:-2~~-|
|-3333333-4444444|-0000-4-222222---------------0~~-|
|-1111111-2222222|---------------------------------|
Related for Breakdown tab