Song name
# A B C D E F G H I J K L M N O P Q R S T U V W X Y Z

Fotheringay - The Way I Feel tab

1st Verse:                                             
                 e------5---3----1----1^0------------||
                 B----3----3----3----3---------------||
                 G-----------------------------------||
                 D--0-----0--- 0----0----------------||
                 A-----------------------------------||
                 E-----------------------------------|| x4
          "The way I feel...................."

                 e------5---3-----1-----1^0---------||
                 B----3----3-----3-----3------------||
                 G----------------------------------||
                 D----------------------------------||
                 A--3-----3-----3---- 3-------------||
                 E----------------------------------|| x2
  "Who's birds have flown....."

                 e------5---3----1----1^0------------||
                 B----3----3----3----3---------------||
                 G-----------------------------------||
                 D--0-----0--- 0----0----------------||
                 A-----------------------------------||
                 E-----------------------------------||x6


                 e------5---3-----1-----1^0---------||
                 B----3----3-----3-----3------------||
                 G----------------------------------||
                 D----------------------------------||
                 A--3-----3-----3---- 3-------------||
                 E----------------------------------||x2

                 e----------0------0----------0------0-||
                 B----1-3------3-------1--3------3-----||
                 G-------------------------------------||
                 D-------------------------------------||
                 A--3----------------3-----------------||
                 E-------------------------------------|| x2

                 e------1^0--0^1---1---------1^0--0^1--||
                 B----3--------------------3-----------||
                 G-------------------------------------||
                 D--0--------------------0-------------||
                 A-------------------------------------||
                 E-------------------------------------||x2

(Repeat from first verse)

3rd Verse riff:
                 e-------------------------------------||
                 B-------------------------------------||
                 G----2--2^0---------------------------||
                 D--0--------3---3^2^0-----------------||
                 A---------------------3---3^2^0-------||
                 E-------------------------------1-----||x4


                 e-------------------------------------||
                 B-------------------------------------||
                 G----0------0--0----------------------||
                 D-------3^5-------2-2^0---------------||
                 A--3--------------------3-------------||
                 E-------------------------------------||x1

                 e-------------------------------------||
                 B-------------------------------------||
                 G----2--2^0---------------------------||
                 D-----------3---3^2^0-----------------||
                 A--3------------------3---3^2^0-------||
                 E-------------------------------1-----||x1



Tap to rate this tab
# A B C D E F G H I J K L M N O P Q R S T U V W X Y Z