Guitaretab - guitar tabs
Song name
# A B C D E F G H I J K L M N O P Q R S T U V W X Y Z

Foundations - Build Me Up Buttercup tab

this is only a portion of the song. ive seen a guy played this on youtube but i just 
follow the rest of the tab anyway here is a portion of it, if someone out there can tab out 
rest please mail it to me At ranma_cobain@yahoo.com ^_^ or just kindly post it

intro part:

e:-3-3-3---0-0-0-0---0--0-0-0------------|
B:-3-3-3---0-0-0-0---0--1-1-1---3-3-3----|
G:-0-0-0------------------------5-5-5--0-|
D:------------------------------4-4-4--4-|
A:---------2-2-2-2---0--3-3-3---5-5-5--5-|
E:-3-3-3---------------------------------|

[ Tab from: http://www.guitaretab.com/f/foundations/6643.html ]
2nd intro part:
e:-3-----3-3-------0-0-0-0----------------------------|
B:-3-----3-3-------0-0-0-0------0---1------1-1------3-|
G:-----0-------0--------------1----------0-------0--5-|
D:---0-------0--------------2----------2-------2----4-|
A:-----------------2-2-2-2----------3------3-3------5-|
E:-3-----3-3------------------------------------------|


Verse:
     G                 E                C                D7
e:-0-0-0-------------0-0-0-------------------------------2-2-2-0--------|
B:-1-0-0-----0----0--1-0-0------0---0-1-1-1------1-------1-1-1-0------0-|
G:---------0---0--------------2---2---2-0-0----0---0-----------------0--|
D:-------0------------------2----------------2-------2-------------0----|
A:-------------------2-2-2------------3-3-3--------------0-0-0-0--------|
E:-3-3-3----------------------------------------------------------------|

e:-0------0-------|
B:-1------0-----0-|
G:-----0------0---|
D:---0------0-----|
A:----------------|
E:-3------3-------| and just do the E part  to the D7 part again on the first verse


well thats all i fgured out im really busy so please send me a tab anyone who can figure 
the chorus part. Louvin d' great
Advertisement will be closed in 10 seconds