Guitaretab - guitar tabs
Song name
# A B C D E F G H I J K L M N O P Q R S T U V W X Y Z

Fountains Of Wayne - Michael And Heather At The Baggage Claim tab

Highlighted       Show chord diagrams
Artist: Fountains Of Wayne
Album: Traffic and Weather
Song: Michael And Heather At The Baggage Claim

Tab Accuracy: 100%

Ok guys, first off this band is amazing and i promise this tab is 100% accurate.
Its real simple.

Chords Used:

    D  D/B C9 E7 D/F# D/E G
    
E---2--0---3---0--0---0---3-------
B---3--3---3---3--3---3---3-------
G---2--2---0---0--2---0---0------- 
D---0--0---2---0--0---2---0-------
A------2---3---2--0---0---2-------
E--------------0--2-------3-------



The little riff at the beginning of each verse goes like this:

VERSE RIFF
 |--2-0-2-3-2-----------------------------| 
 |--3-3-3-3-3-----------------------------|
 |--2-2-2-2-2-----------------------------|
 |--0-0-0-0-0-----------------------------|
 |--0-0-0-0-0-----------------------------|
 |----------------------------------------|



VERSE:

D(verse riff)              D/B
Michael and Heather at the baggage claim
[ Tab from: http://www.guitaretab.com/f/fountains-of-wayne/106037.html ]
C9                   E7  
Tired of playing the waiting game

D(verse riff)       D/B
Every bag has got a different name

C9                      E7
Michael and Heather may never get home again



Pre-Chorus bit:

D/F#        D/B           C9       E7        
Ba ba ba ba, ba ba ba ba, ba ba ba ba ba ba baaaaa

D/F#         D/B          C9       D/E
Ba ba ba ba, ba ba ba ba, ba ba ba baaaaaaaa

VERSE 2.

Pre-Chorus bit.


Chorus

D/F#         G         A
It's been a long, long day

D/F#          G         A
Can't we just be on our way?

D/F#         G         A   
It's been a long, long day

D/F#          G         D/E_______
Can't we just be on our way?


Bridge (Verse Chords)


Verse

Fade Out.........



ENJOY.

Anymore FOW requests, email me at beatleboy@hotmail.co.uk
Related for Michael And Heather At The Baggage Claim tab