Song name
# A B C D E F G H I J K L M N O P Q R S T U V W X Y Z

Four Tet - Everything Is Alright tab

----------------------------------------------------------------------------
		      EVERYTHING IS ALRIGHT - Four Tet
----------------------------------------------------------------------------

Tabbed by: 10 years gone
Email: pierreteketet@hotmail.com

Tuning: EADGBe

   Fm                                 Ab                D#add9
   *                *                 *                 *
e|-------------------------------------------------------------------------|
B|---9---------------8h9---------------9---------9----------------6--------|
G|-----------10---------------10-------------------------8-----------------|
D|-------10---------------10----------------10----------------8------------|
A|---8---------------8-----------------11----------------6-----------------|
E|-------------------------------------------------------------------------|


| /  slide up
| \  slide down
| h  hammer-on
| p  pull-off
| ~  vibrato
| +  harmonic
| x  Mute note
============================================================================
Tap to rate this tab
# A B C D E F G H I J K L M N O P Q R S T U V W X Y Z